» » »

Britt Nicole, Walk On The Water Tabs (ver.1)

Artists:  A B C D E F G H I J K L M N O P Q R S T U V W X Y Z # 

Walk On The Water Tabs (ver.1)

Britt Nicole Tabs
 Rating:
4/5 (4 votes)
Walk On The Water lessons Tabs too difficult? Try these video lessons and learn fast
1
                Britt Nicole, Joshua Crosby, Dan Muckala
Key: Eb

Capo 1



Chords used:
  Dsus2  Bm11   G5  Gsus2 Asus4  D/F#  Gmaj7  Em7   D     A
e|--0-----0-----3-----3-----0-----2-----2-----0-----2-----0----------|
B|--3-----3-----3-----3-----3-----3-----3-----3-----3-----2----------|
G|--2-----2-----0-----2-----2-----2-----0-----0-----2-----2----------|
D|--0-----0-----0-----0-----2-----0-----0-----2-----0-----2----------|
A|--------2-----x-----x-----0-----x-----x-----2-----------0----------|
E|--------------3-----3-----------2-----3-----0----------------------|

Primary strumming pattern: count as 1+2+3+4+

(1) D _ (+) _ U (2) _ U (+) D _ (3) _ U (+) _ U (4) D U (+) D U


Intro: (alternate picking)
   D                                 D
e|---------------------------------|---------------------------------|
B|-3-----3-------3-------3-------3-|-3-------5-------2-----2---------|
G|-2---------2-------2-------2-----|-2---2-2-2---2-2-2---------2---2-|
D|-0---0-------0-------0-------0---|-0---0-0-0---0-0-0---0-------0---|
A|---------------------------------|---------------------------------|
E|---------------------------------|---------------------------------|
   d _ d u _ u d u _ u d u _ u d u   d _ d u d _ d u d _ d u _ u d u


Verse: (alternate picking)
   D*                                D**
e|---------------------------------|---------------------------------|
B|-3-----3-------3-------3-------3-|-3-------5-------2-------3-------|
G|-2---------2-------2-------2-----|-2---2-2-2---2-2-2---2-2-2---2-2-|
D|-0---0-------0-------0-------0---|-0---0-0-0---0-0-0---0-0-0---0-0-|
A|---------------------------------|---------------------------------|
E|---------------------------------|---------------------------------|
   d _ d u _ u d u _ u d u _ u d u   d _ d u d _ d u d _ d u d _ d u


   Bm11*                             G5*
e|---------------------------------|---------------------------------|
B|-------3-------3-------3-------3-|-------3-------3-------3-------3-|
G|-----2-----2-------2-------2-----|-----0-----0-------0-------0-----|
D|-------------0-------0-------0---|-------------0-------0-------0---|
A|-2-------------------------------|---------------------------------|
E|---------------------------------|-3-------------------------------|
   d _ d u _ u d u _ u d u _ u d u   d _ d u _ u d u _ u d u _ u d u


Verse 1:
    D*              D**
You look around and staring back at you
        Bm11*
Another wave of doubt
        G5*
Will it pull you under, you wonder
D*
 What if I’m overtaken
D**
 What if I never make it
Bm11*                 G5 Gsus2            Asus4
 What if no one’s there, will You hear my prayer
         D/F#            G5 Gmaj7        Asus4
When you take that first step into the unknown
D/F#           G5
He won’t let you go


Chorus:
                        Dsus2                    Asus4
So what are you waiting for, what do you have to lose
         Em7                           G5
Your insecurities, they try to hold to you
                             D                     Asus4
But you know you’re made for more, so don’t be afraid to move
     Em7             Bm11              G5
Your faith is all it takes and you can walk on the water too


Verse 2:
       D*               D**
So get out and let your fear fall to the ground
           Bm11*
No time to waste, don’t wait
    G5             Gsus2           D*
And don’t you turn around and miss out
                         D**
Everything you were made for
                  Bm11*
I know you’re not sure
               G5              Gsus2   Asus4
So you play it safe, you try to run away
             D/F#            G5 Gmaj7        Asus4
But when you take that first step into the unknown
   D/F#              G5
My God won’t let you go


Bridge:
Em7
 Step out, even when it’s storming
Bm11
 Step out, even when you’re broken
D                                  A               Asus4
 Step out, even when your heart is telling you, is telling you to give up
Em7
 Step out, when your hope is stolen
Bm11
 You can’t see where you’re going
D                      A         Asus4
 You don’t have to be afraid, no no no
   G5                    Gmaj7                D
So what are you waiting, what are you waiting for
            
Submit corrections

comments powered by Disqus
↑ Back to top | Britt Nicole Tabs for Walk On The Water. Lyrics for acoustic guitar and electric guitar. 1 Tablatures and chords are parodies/interpretations of the original songs. You may use it for private study, scholarship, research or language learning purposes only