» » »

Amy In The White Coat Tabs (ver.1)

Artists:  A B C D E F G H I J K L M N O P Q R S T U V W X Y Z # 

Amy In The White Coat Tabs (ver.1)

Bright Eyes
Rating:
0/5 (0 votes)

Hard to play? Try these video lessons and learn fast.
                (Intro)
Here is the intro to the song Amy In The White Coat. It is basically the whole song,
so I'll leave it up to you to figure out the rest. I'm only guessing about one chord
is wrong. Sorry about the spacing. You will just have to listen to the song. Good luck.

Standard tuning
                
Some chords you need to know
Dbmaj7: x4656x
Bbmin7: 686666
Ebmin7: x6867x
Abmaj7: 464544

            (Dbmaj7)                     (Bbmin7)
--------------------------|----------------------6------|
----------------6----6----|-------------------6---6---6-|
---------------5----5-----|------------------6-----6----|
-------------------4----4-|----11---10------------------|
----4---3---4-------------|8----------------------------|
1-------------------------|---------------6-------------|

             (Ebmin7)                     (Abmaj7)
--------------------------|----------------------4------|
----------------7----7----|-------------------4---4---4-|
---------------6----6-----|------------------5-----5----|
-------------------8----8-|4----3-----------------------|
----9---8---6-------------|---------6-------------------|
6-------------------------|---------------4-------------|

Well, thats basically how it goes, give or take a few of Conor's improvisation things.
I'll get to the other part of the song later.
            
Hard to play? Try these video lessons and learn fast. | Correct




comments powered by Disqus
↑ Back to top | Tablatures and chords are parodies/interpretations of the original songs. You may use it for private study, scholarship, research or language learning purposes only