» » »

Bright Eyes, Going For The Gold Tabs (ver.1)

Artists:  A B C D E F G H I J K L M N O P Q R S T U V W X Y Z # 

Going For The Gold Tabs (ver.1)

Bright Eyes Tabs
Rating:
0/5 (0 votes)
Going For The Gold lessons Tabs too difficult? Try these video lessons and learn fast
                Band – Bright Eyes (Conor Oberst)
Song – Going For The Gold
Album – Don’t Be Afraid O Turning The Page

Fingerpick EVERYTHING. I’m just giving you the basic chord structures. Just finger pick them (listen to the song to get it down)

Verse
-00000-000000-333333333333-222222-22220002222--
-00000-000000-000000000000-000000-33333333333--
-00000-000000-000000000000-000000-22222222222--
-55555-444444-333333333333-222222-00000000000--
-----------------------------------------------
-----------------------------------------------

(Conor plays this for a few measures before the verse and then plays this at the end)
-55555-444444-333333333333-222222-22220002222--
-00000-000000-000000000000-000000-33333333333--
-00000-000000-000000000000-000000-22222222222--
-55555-444444-333333333333-222222-00000000000--
-----------------------------------------------
-----------------------------------------------


Chorus -

C D G B#m C D G C D B#m Em C D G B#m Em C D

Bridge Chords - 

---2-3-0---------------------------------------
-2-3-3-2---------------------------------------
-2-4-0-0---------------------------------------
-4-4-0-2---------------------------------------
-4-2-2-0---------------------------------------
-2---3-----------------------------------------
            

comments powered by Disqus
↑ Back to top | Bright Eyes Tabs for Going For The Gold. Lyrics for acoustic guitar and electric guitar. Tablatures and chords are parodies/interpretations of the original songs. You may use it for private study, scholarship, research or language learning purposes only