» » »

Dead In The Suburbs Bass tabs (ver.2)

Artists:  A B C D E F G H I J K L M N O P Q R S T U V W X Y Z # 

Dead In The Suburbs Bass tabs (ver.2)

Briefs
Rating:
0/5 (0 votes)

Hard to play? Try these video lessons and learn fast.
                Main Riff 
G---------------------------------------|
D--33333333-----------------------------|
A-----------44444444----------65656565--|
E--------------------44444444-----------|

Verse
G-------------------------------------|
D--33333333--------------------36--25-|
A--------------------66666666-4---3---|
E-----------44444444------------------|

Chorus
G---------------------------------------|
D--33333333-----------------------------|
A-----------44444444----------66666666--|
E--------------------44444444-----------|

Solo (last bar before solo ends)
G---------------------------------------|
D--33333333---3-4-6------------5-6-7----|
A-----------4---------3-4-6--6----------|
E-------------------4-------------------|

Outro                   End Note
G----------------------|--------|
D--33333333---36---25--|--3-----|
A-----------4----3-----|--------|
E----------------------|--------|

_________Order__________
Main   x4
Verse  x2
Chorus x2
Main   x2
Verse  x2
Chorus x2
Main   x1
Solo   x1
Main   x2
Verse  x2
Chorus x2
Outro  X4
            
Hard to play? Try these video lessons and learn fast. | Correct




comments powered by Disqus
↑ Back to top | Tablatures and chords are parodies/interpretations of the original songs. You may use it for private study, scholarship, research or language learning purposes only