» » »

Dead In The Suburbs Bass tabs (ver.1)

Artists:  A B C D E F G H I J K L M N O P Q R S T U V W X Y Z # 

Dead In The Suburbs Bass tabs (ver.1)

Briefs
Rating:
1/5 (1 vote)

Hard to play? Try these video lessons and learn fast.
                G|----------------------------------------------------|
D|---5-555555-----------------------------------------|
A|------------5-5555555--2-2222222-97979797-----------|
E|----------------------------------------------------|

G|----------------------------------------------------|
D|---5-555555-----------------------------------------|
A|------------5-5555555--2-2222222-97979797-----------|
E|----------------------------------------------------|


this song was originally written by some band called Los Reactors.
            
Hard to play? Try these video lessons and learn fast. | Correct




comments powered by Disqus
↑ Back to top | Tablatures and chords are parodies/interpretations of the original songs. You may use it for private study, scholarship, research or language learning purposes only