» » »

Breaking Benjamin, Who Wants To Live Forever Tabs (ver.1)

Artists:  A B C D E F G H I J K L M N O P Q R S T U V W X Y Z # 

Who Wants To Live Forever Tabs (ver.1)

Breaking Benjamin Tabs
 Rating:
4/5 (4 votes)
Who Wants To Live Forever lessons Tabs too difficult? Try these video lessons and learn fast
1
                Band: Breaking Benjamin
Tuning: Low To High (C A A# G# G C)

This is a song from the Killer Queen album. It took me a long time to write this tab and 
aren’t any posts for this song so don’t be harsh! Listen closely to the song and you 
hear that some if not all of this tab is right. Anyway, enjoy and PLEASE RATE!

*** Corrections: June 26, 2006: Fixed the bridge

*** Corrections: June 26, 2006: Fixed the verse
____________________________________________________________________________

Intro:

(There’s No Time.....)

Guitar 2 (Figure Out Strumming)

C |--0---2---3---2---3---2---3---2--|
G |--1---3---3---3---3---3---3---3--|
G#|--2---0---0---0---0---0---0---0--|
A#|--2---4---5---4---0---4---5---4--|
A |--0---5---5---5---2---5---5---5--|
C |------------------3--------------|

Guitar 1 (Does not strum)

C |--0---2---3---2---3---2---3---2--|
G |--1---3---3---3---3---3---3---3--|
G#|--2---0---0---0---0---0---0---0--|
A#|--2---4---5---4---0---4---5---4--|
A |--0---5---5---5---2---5---5---5--|
C |------------------3--------------|
____________________________________________________________________________

(Who Wants to Live Forever...)

Guitar 1

C |------0--------------------8-9-8----|
G |----1---1-----3----------7-------8--|
G#|------------0---0-------------------|
A#|-----------------------7------------| x2
A |--------------------5---------------|
C |------------------------------------|

Guitar 2 (Last chord is strummed in some sort of way)

C |--3-------2----------|
G |--3-------3----------|
G#|--0-------0-------0--|
A#|--5-------4-------2--|
A |--5-------5-------2--|
C |------------------0--|

____________________________________________________________________________

Verse:

(There’s no chance...)

Guitar 2 (Figure Out Strumming)

C |--0---2---3---2---3---2---3---2--|
G |--1---3---3---3---3---3---3---3--|
G#|--2---0---0---0---0---0---0---0--|
A#|--2---4---5---4---0---4---5---4--|
A |--0---5---5---5---2---5---5---5--|
C |------------------3--------------|

Guitar 1 (Not sure about this part)

C |--0-0-0-0---------3-3-3-3-2-2-2-2---|
G |--1-1-1-1-3-3-3-3-3-3-3-3-3-3-3-3---|
G#|----------0-0-0-0-------------------|
A#|------------------------------------| x2
A |------------------------------------|
C |------------------------------------|

____________________________________________________________________________

(Who Wants to Live Forever...)

Guitar 1

C |------0--------------------8-9-8----|
G |----1---1-----3----------7-------8--|
G#|------------0---0-------------------|
A#|-----------------------7------------| x2
A |--------------------5---------------|
C |------------------------------------|

Guitar 2 (Last chord is strummed in some sort of way)

C |--3-------2----------|
G |--3-------3----------|
G#|--0-------0-------0--|
A#|--5-------4-------2--|
A |--5-------5-------2--|
C |------------------0--|

(Cont.)

(Ooooooooo....)

Guitar 1

C |-----------|   |--0-0-----0-0-0-0---0-0-----0-0-0-0-|
G |-----------|   |--1-1-3-3-1-1-1-1---1-1-3-3-1-1-1-1-|
G#|-----------|   |------0-0---------------0-0---------|
A#|-----------|x1 |------------------------------------|
A |-----------|   |------------------------------------|
C |-----------|   |------------------------------------|

Guitar 2 (figure out strumming)

C |--3---2----|   |--3---2------|
G |--3---3----|   |--3---3------|
G#|--0---0----|   |--0---0---0--|
A#|--5---4----|x1 |--5---4---2--| x2
A |--5---5----|   |--5---5---2--|
C |-----------|   |----------0--|
____________________________________________________________________________

(Whoa!.....when love must die)

Guitar 2 (Figure Out Strumming)

C |--3---2~--|
G |--3---3~--|
G#|--0---0~--|
A#|--5---4~--|
A |--5---5~--|
C |----------|

Guitar 1 (Use distortion on the last note)

C |--3-3-3-3--2~---------------------|
G |--3-3-3-3--3~---------------------|
G#|----------------------------0~----|
A#|----------------------------2~----|
A |----------------------------2~----|
C |----------------------------0~----|
                          When Love must Die....
____________________________________________________________________________


Solo : (Play immediately after last chord above. Listen to the song to know when to play)

Guitar 1

C |-----------------------------------------------|
G |-----------------------------------------------|
G#|-------------7h8~-7-0-0h5~---7h8~-7h8p7-0-0h5~-|
A#|-----------------------------------------------| then...
A |-----------------------------------------------|
C |-----------------------------------------------|

C |-------------------------------------------------------|
G |-------------------------------------------------------|
G#|--7-7-7h8~--5-7-10p8-8h10h12~---11b~-9--------------5~-|
A#|---------------------------------------9-7----------5~-|
A |-------------------------------------------10-7-5-2-3~-|
C |-------------------------------------------------------|
                                          P.m..........

Guitar 2            x2
               |-------------------------------------------|
C |-----------|-----------|         C |--------------------|
G |-----------|-----------|         G |--------------------|
G#|-----------|-----------|         G#|--------------------|
A#|--9h10-7h9~|-9h10-7h9~-| Then... A#|--9-9-9---5-5-5-----| x2
A |-----------|-----------|         A |--7-7-7---3-3-3-----|
C |-----------|-----------|         C |--------------------|
                                    Pm..................
____________________________________________________________________________

(Touch My tears...)

Guitar 2

C |------------------------------------------------------------------------|
G |------------------------------------------------------------------------|
G#|------------------------------------------------------------------------|
A#|------8-8-7-7-------10-10-8-8-7-7-8-8-----8-8-7-7-----10-10-8-8-7-7-8-8-|
A |10-10---------10-10-------------------6-6---------6-6-------------------|
C |------------------------------------------------------------------------|
Pm.........................................................................

Guitar 1

C |------------------------------------------------------------------|
G |------------------------------------------------------------------|
G#|------------------------------------------------------------------|
A#|------5-5-4-4-----7-7-5-5-4-4-5-5-----5-5-4-4-----7-7-5-5-4-4-5-5-| x2
A |--7-7---------7-7-----------------3-3---------3-3-----------------|
C |------------------------------------------------------------------|
P.m...................................................................
____________________________________________________________________________

(And we can have forever...)

Guitar 1

C |----------------------------------------------------------|
G |----------------------------------------------------------|
G#|-/12~-/14~-/16~---/12~-/14~-/16~----16-------14--------8~-|
A#|--x----x----x------x----x----x------x--(x8)--x--(X6)---7~-|
A |-/10~-/12~-/14~---/10~-/12~-/14~----14-------12--------6~-|
C |-----------------------------------------------------7----|

Guitar 2

C |--3~----2~----------3~----2~-----------------------------|
G |--3~----3~----------3~----3~-----------------------------|
G#|--0~----0~---0~-----0~----0~---0~---5-------7---------8~-|
A#|--5~----4~---2~-----5~----4~---2~---5-(x8)--7-(x6)----7~-|
A |-------------2~----------------2~---3-------5---------6~-|
C |-------------0~----------------0~-------------------7----|

____________________________________________________________________________

(Who wants to live forever...)

Guitar 2

C |--3-3-3--2-2-2-2-----------------3-3-3--2-2-2-2------------------|
G |--3-3-3--3-3-3-3-----------------3-3-3--3-3-3-3------------------|
G#|--0-0-0--0-0-0-0-0-0-0-0-0-0-0-0-0-0-0--0-0-0-0-0-0-0-0-0-0-0-0--|
A#|--5-5-5--4-4-4-4-2-2-2-2-2-2-2-2-5-5-5--4-4-4-4-2-2-2-2-2-2-2-2--|
A |-----------------2-2-2-2-2-2-2-2----------------2-2-2-2-2-2-2-2--|
C |-----------------0-0-0-0-0-0-0-0----------------0-0-0-0-0-0-0-0--|

Guitar 1

C |--------------------------------------------|
G |------------------------16b--14p12p11-12b~--|
G#|--------------------------------------------|
A#|--------------------------------------------|
A |--------------------------------------------|
C |--------------------------------------------|

(Cont.)

(Forever is our today...)

Guitar 1

C |--------------------------------------------------|
G |--------------------------------------------------|
G#|--9--9--9--9--9--9--9--9--12-12-12-12-11-11---8~--|
A#|--x--x--x--x--x--x--x--x--x--x--x--x--x--x----7~--|
A |--7--7--7--7--7--7--7--7--10-10-10-10-9--9----6~--|
C |--------------------------------------------7-----|

Guitar 2

C |-----------------------------------------------|
G |-----------------------------------------------|
G#|--5--5--5--5--5--5--5--5-7--7--7--7--7--7---8~-|
A#|--5--5--5--5--5--5--5--5-7--7--7--7--7--7---7~-|
A |--3--3--3--3--3--3--3--3-5--5--5--5--5--5---6~-|
C |------------------------------------------7----|
____________________________________________________________________________

(Who waits forever anyway...)

Guitar 2

C |-----|
G |-----|
G#|--9~-|
A#|--9~-|
A |--7~-|
C |-----|

Guitar 1

C |-----3--2~--3--2~---|
G |-----3--2~--3--2~---|
G#|--------------------|
A#|--------------------|
A |--------------------|
C |--------------------|
                                          End
            
Submit corrections

comments powered by Disqus
↑ Back to top | Breaking Benjamin Tabs for Who Wants To Live Forever. Lyrics for acoustic guitar and electric guitar. 1 Tablatures and chords are parodies/interpretations of the original songs. You may use it for private study, scholarship, research or language learning purposes only