» » »

Breaking Benjamin, Rain Tabs (ver.1)

Artists:  A B C D E F G H I J K L M N O P Q R S T U V W X Y Z # 

Rain Tabs (ver.1)

Breaking Benjamin Tabs
 Rating:
4/5 (4 votes)
Rain lessons Tabs too difficult? Try these video lessons and learn fast
1
                This is the same thing as my last tab except I corrected a mistake in the chorus. The
second chord in the chorus on the last tab was horribly innacurate but now it's fixed.
It still is tuned down 2 whole steps which is from low to high C F Bb Eb G C.


Intro/Verse

|-------------------------------------------------------------X-X-XX-------|
|------------------------------------------------------5-55-55X-X-XX-(0)---|
|-1-1-1-1--1--1--1--1--1-1-1--2--2--2--2--2--2--1-1-1-16-66-668-8-86-66-6--|
|-2-2-2-2--2--2--2--2--2-2-2--2--2--2--2--2--2--2-2-2-26-66-669-9-97-77-7--|
|-2-2-2-0--0--0--0--0--2-2-2--0--0--0--0--0--0--2-2-2-24-44-449-9-97-77-7--|
|-0-0-0(0)(0)(0)(0)(0)-0-0-0-(0)(0)(0)(0)(0)(0)-0-0-0-0-------7-7-75-55-5--|

Chorus (x2 on first one and x4 on the others)

|--------------------------------
|--------------------------------
|-1-1-1----------1--1--1--1--1--1	
|-2-2-2-4-4-4-4--2--2--2--2--2--2	
|-2-2-2-4-4-4-4--0--0--0--0--0--0
|-0-0-0-2-2-2-2-(0)(0)(0)(0)(0)(0)

Bridge (x4)

|------------------------------------------------------------------X-X-X-X-|
|------------------------------------------------------------------X-X-X-X-|
|-1-1-1-1--1--1--1--1--1-1-1--2--2--2--2--2--2--1-1-1--1--1--1--1--8-8-6-6-|
|-2-2-2-2--2--2--2--2--2-2-2--2--2--2--2--2--2--2-2-2--2--2--2--2--9-9-7-7-|
|-2-2-2-0--0--0--0--0--2-2-2--0--0--0--0--0--0--2-2-2--0--0--0--0--9-9-7-7-|
|-0-0-0(0)(0)(0)(0)(0)-0-0-0-(0)(0)(0)(0)(0)(0)-0-0-0-(0)(0)(0)(0)-7-7-5-5-|

Also, this is my first tab, so be nice.
            
Submit corrections

comments powered by Disqus
↑ Back to top | Breaking Benjamin Tabs for Rain. Lyrics for acoustic guitar and electric guitar. 1 Tablatures and chords are parodies/interpretations of the original songs. You may use it for private study, scholarship, research or language learning purposes only