>
 >
No Games 2

No Games 2 Guitar Tabs

Breaking Benjamin - No Games 2 chords, tabs, tablatures, lyrics

Guitar lessons | Add/correct | Request | Top 50 tabs Artists:  A B C D E F G H I J K L M N O P Q R S T U V W X Y Z 0-9

No Games 2 Guitar Tabs – Breaking Benjamin

CD, Sheet music, Poster

Do you like No Games 2? Share with your friends now
Bass TabsBass Tabs v2Drum TabsTabsTabs v2Tabs v3
Band: Breaking Benjamin
Tunning: Db Ab Db Gb Bb eb (or C# G# C# F# A# d#)

 Im pretty sure this tab is very accurate. if not 100 %, its at least 75% correct. And a 
both guitars pretty much play the same thing until the 2nd part of the bridge. Here you go.

Intro:

(Clean, tone switch flipped to rhythm side)
eb|------------------------------------------------|
Bb|------------------------------------------------|
Gb|------------------------------------------------|
Db|--------7--------9--------------7--------6------|
Ab|-----4--------7-----0~~------4--------2-----0~~-|
Db|--4--------7--------0~~---4--------2--------0~~-|

Verse 1:

(Clean, tone switch flipped to rhythm side)
eb|---------------------------------|----|----|------------------|
Bb|---------------------------------|----|----|------------------|
Gb|---------------------------------|----|-14-|------------------|
Db|--------7--------9--------11--11-|-14-|----|<-Play these notes|
Ab|-----4--------7--------9---------|-12-|-12-|--The last time---|
Db|--4--------7--------9------------|----|----|x3----------------|
   Play these notes the first 2 times ^        ------------------| 2x
eb|-------------------------------------|     -------------------|
Bb|--------------------------------0~~--|    --------------------|
Gb|-----------------------------6-------|   ---------------------|
Db|--------7--------6--------7----------|  ----------------------|
Ab|-----4--------2--------0-------------| -----------------------|
Db|--4--------2--------0----------------|------------------------|

Pre-Chorus:

(Distortion)
eb|-----------------------------------|
Bb|-----------------------------------|
Gb|-----------------------------------|
Db|--7-7-7-7-6-6-6-6-7-7-7-7-7-7-7-7--|
Ab|--4-4-4-4-2-2-2-2-0-0-0-0-0-0-0-0--|
Db|--4-4-4-4-2-2-2-2-0-0-0-0-0-0-0-0--|x4

Chorus:

(Distortion)
eb|-------------------------------------------------------------------|
Bb|-------------------------------------------------------------------|
Gb|----------------------------------6-6-6-6-6-6-6-6-7-7-7-7-9-9-9-9--|
Db|--7-7-7-7-9-9-7-7-4-4-4-4-6-6-4-4-6-6-6-6-6-6-6-6-7-7-7-7-9-9-9-9--|
Ab|--7-7-7-7-7-7-7-7-4-4-4-4-4-4-4-4-4-4-4-4-4-4-4-4-5-5-5-5-7-7-7-7--|
Db|--7-7-7-7-7-7-7-7-4-4-4-4-4-4-4-4----------------------------------|x2

Verse 2:

(Clean, tone switch flipped to rhythm side)
eb|---------------------------------|----|----|------------------|
Bb|---------------------------------|----|----|------------------|
Gb|---------------------------------|----|-14-|------------------|
Db|--------7--------9--------11--11-|-14-|----|<-Play these notes|
Ab|-----4--------7--------9---------|-12-|-12-|--The last time---|
Db|--4--------7--------9------------|----|----|x3----------------|
   Play these notes the first 2 times ^        ------------------| 2x
eb|-------------------------------------|     -------------------|
Bb|--------------------------------0~~--|    --------------------|
Gb|-----------------------------6-------|   ---------------------|
Db|--------7--------6--------7----------|  ----------------------|
Ab|-----4--------2--------0-------------| -----------------------|
Db|--4--------2--------0----------------|------------------------|

Pre-Chorus:

(Distortion)
eb|-----------------------------------|
Bb|-----------------------------------|
Gb|-----------------------------------|
Db|--7-7-7-7-6-6-6-6-7-7-7-7-7-7-7-7--|
Ab|--4-4-4-4-2-2-2-2-0-0-0-0-0-0-0-0--|
Db|--4-4-4-4-2-2-2-2-0-0-0-0-0-0-0-0--|x4

Chorus 2:

(Distortion)
eb|-------------------------------------------------------------------|
Bb|-------------------------------------------------------------------|
Gb|----------------------------------6-6-6-6-6-6-6-6-7-7-7-7-9-9-9-9--|
Db|--7-7-7-7-9-9-7-7-4-4-4-4-6-6-4-4-6-6-6-6-6-6-6-6-7-7-7-7-9-9-9-9--|
Ab|--7-7-7-7-7-7-7-7-4-4-4-4-4-4-4-4-4-4-4-4-4-4-4-4-5-5-5-5-7-7-7-7--|
Db|--7-7-7-7-7-7-7-7-4-4-4-4-4-4-4-4----------------------------------|x2

eb|-------------------------------------------------------------------|
Bb|-------------------------------------------------------------------|
Gb|----------------------------------6-6-6-6-6-6-6-6-7-7-7-7-9-9-9-9--|
Db|--7-7-x-x-x-7~~---4-4-4-4-6-6-4-4-6-6-6-6-6-6-6-6-7-7-7-7-9-9-9-9--|
Ab|--7-7-x-x-x-7~~---4-4-4-4-4-4-4-4-4-4-4-4-4-4-4-4-5-5-5-5-7-7-7-7--|
Db|--7-7-x-x-x-7~~---4-4-4-4-4-4-4-4----------------------------------|

eb|-------------------------------------------------------------------|
Bb|-------------------------------------------------------------------|
Gb|----------------------------------6-6-6-6-6-6-6-6-7-7-7-7-9-9-9-9--|
Db|--7-7-7-7-9-9-7-7-4-4-4-4-6-6-4-4-6-6-6-6-6-6-6-6-7-7-7-7-9-9-9-9--|
Ab|--7-7-7-7-7-7-7-7-4-4-4-4-4-4-4-4-4-4-4-4-4-4-4-4-5-5-5-5-7-7-7-7--|
Db|--7-7-7-7-7-7-7-7-4-4-4-4-4-4-4-4----------------------------------|

Bridge Part 1:

There's that little violin solo, and I think I can hear a clean guitar, tone switch on 
playing this.

eb|------------------------------------------------------------------------|
Bb|------------------------------------------------------------------------|
Gb|------------------------------------------------------------------------|
Db|------------------------------------------------------------------------|
Ab|-12-12-12-12-11-11-11-11-14-14-14-14-12-12-12-12-16-16-16-16-14-14-14-14|
Db|------------------------------------------------------------------------|

 Something like that, then theres the part right after that when the violin stops.

(Distortion)
eb|----------------------------------------|
Bb|----------------------------------------|
Gb|--2--4--6--6--7-6-2--6--7--9--9--11-9-6-|
DB|--x--x--x--x--x-x-x--x--x--x--x--x--x-x-|
Ab|--0--2--4--4--5-4-0--4--5--7--7--9--7-4-|
Db|----------------------------------------|

(Clean, tone switch flipped to rhythm side)
eb|------------------------------------------------------------------------|
Bb|------------------------------------------------------------------------|
Gb|------------------------------------------------------------------------|
Db|------------------------------------------------------------------------|
Ab|-12-12-12-12-11-11-11-11-14-14-14-14-12-12-12-12-16-16-16-16-14-14-14-14|
Db|------------------------------------------------------------------------|

(Distortion)
eb|----------------------------------------|
Bb|----------------------------------------|
Gb|--2--4--6--6--7\6-2--6--7--9--9--11\9-6-|
Db|--x--x--x--x--x\x-x--x--x--x--x--x--x-x-|
Ab|--0--2--4--4--5\4-0--4--5--7--7--9-\7-4-|
Db|----------------------------------------|

Bridge Part 2:

Guitar 1
(Distortion)
eb|----------------------------------|
Bb|----------------------------------|
Gb|-------------------------7-7-7-7--|
Db|--0-0-0-0---0-0----0-0-0-x-x-x-x--|
Ab|--0-0-0-0---0-0----0-0-0-5-5-5-5--|
Db|--0-0-0-0---0-0----0-0-0----------|x2
P.M. . .       .      . . .

(Distortion)
eb|------------------------------------|
Bb|------------------------------------|
Gb|------------------------------------|
Db|--0-0-0-0---0-0----0-0-0-0-0-0-0-0--|
Ab|--0-0-0-0---0-0----0-0-0-0-0-0-0-0--|
Db|--0-0-0-0---0-0----0-0-0-0-0-0-0-0--|
P.M. . .       .      . . . . . . . .

Guitar 2

eb|-------------------------------------------|
Bb|-------------------------------------------|
Gb|-------------------------------------------|
Db|-------------------------------------------|
Ab|--11-11-11-11-11-11-11-11-9-9-9-9-9-9-9-9--|
Db|-------------------------------------------|

eb|-------------------------------------------|
Bb|-------------------------------------------|
Gb|-------------------------------------------|
Db|-------------------------------------------|
Ab|--11-11-11-11-11-11-12-12-9-9-9-9-9-9-9-9--|
Db|-------------------------------------------|

eb|-------------------------------------------|
Bb|-------------------------------------------|
Gb|-------------------------------------------|
Db|-------------------------------------------|
Ab|--11-11-11-11-11-11-11-11-9-9-9-9-9-9-9-9--|
Db|-------------------------------------------|

Chorus 3 Part 1: x2

(Distortion)
eb|-------------------------------------------------------------------|
Bb|-------------------------------------------------------------------|
Gb|----------------------------------6-6-6-6-6-6-6-6-7-7-7-7-9-9-9-9--|
Db|--7-7-7-7-9-9-7-7-4-4-4-4-6-6-4-4-6-6-6-6-6-6-6-6-7-7-7-7-9-9-9-9--|
Ab|--7-7-7-7-7-7-7-7-4-4-4-4-4-4-4-4-4-4-4-4-4-4-4-4-5-5-5-5-7-7-7-7--|
Db|--7-7-7-7-7-7-7-7-4-4-4-4-4-4-4-4----------------------------------|

Chorus 3 Part 2: x2
eb|------------------------------------------------------------------------|
Bb|------------------------------------------------------------------------|
Gb|------------------------------------8-8-8-8-8-8-8-8-9-9-9-9-11-11-11-11-|
Db|--9-9-9-9-11-11-9-9-6-6-6-6-8-8-6-6-8-8-8-8-8-8-8-8-9-9-9-9-11-11-11-11-|
Ab|--9-9-9-9-9--9--9-9-6-6-6-6-6-6-6-6-6-6-6-6-6-6-6-6-7-7-7-7-9--9--9--9--|
Db|--9-9-9-9-9--9--9-9-6-6-6-6-6-6-6-6-------------------------------------|
                                                     |---------------------|
                                                     |---------------------|
                                  End with this  >>>>|---x---9----x-----11-|
                                  the second time>>>>|---x---9----x-----11-|
                                  Around         >>>>|---x---7----x-----9--|
                                                     |---------------------|

Outro: x2

(Distortion)
eb|-------------------------------------------------------------------|
Bb|-------------------------------------------------------------------|
Gb|-------------------------------------------------------------------|
Db|--9-9-9-9-9-9-9-9-4-4-4-4-4-4-4-4-7-7-7-7-7-7-7-7-2-2-2-2-4-4-4-4--|
Ab|--9-9-9-9-9-9-9-9-4-4-4-4-4-4-4-4-7-7-7-7-7-7-7-7-2-2-2-2-4-4-4-4--|
Db|--9-9-9-9-9-9-9-9-4-4-4-4-4-4-4-4-7-7-7-7-7-7-7-7-2-2-2-2-4-4-4-4--|
                                                   |------------------|
                                                   |------------------|
                               End with this  >>>>>|------------------|
                               The second time>>>>>|---x---2---x---4--|
                               Around         >>>>>|---x---2---x---4--|
                                                   |---x---2---x---4--|

End with this

|---|
|---|
|---|
|-9~|
|-9~|
|-9~|

There, the best tab for this song so far. I hope you enjoy. Please rate!! Email 





Comments


Popular Breaking Benjamin tabs & chords
Polyamous Ez 2 Tune Bass Tabs
Topless Bass Tabs
Breath 1 Chords
Rain 2 Chords
So Cold Chords
Crawl 1 Tabs
Crawl 3 Tabs
Diary Of Jane 3 Tabs
Sugarcoat Tabs
Topless Intro Tabs


Song lyrics



↑ Back to top | Tablatures and chords are parodies/interpretations of the original songs. You may use it for private study, scholarship, research or language learning purposes only
© 2014 AZChords.com Contact us | Privacy policy | DMCA | Add/correct tabs | Request tabs | Top 50 tabs