>
 >
Firefly

Firefly Guitar Tabs

Breaking Benjamin - Firefly chords, tabs, tablatures, lyrics

Guitar lessons | Add/correct | Request | Top 50 tabs Artists:  A B C D E F G H I J K L M N O P Q R S T U V W X Y Z 0-9

Firefly Guitar Tabs – Breaking Benjamin

CD, Sheet music, Poster

Do you like Firefly? Share with your friends now
Bass TabsChordsChords v2TabsTabs v2Tabs v3

Tuning: CGCFAD (Drop D, and one step down)

Intro

D-------------------------------------------------------------|
A-------------------------------------------------------------|
F-------------------------------------------------------------|
C-------------------------------------------------------------|
G-10-0*0*-0-10-0*0*-0-10-0*-0-3-0*-0*-0-10-0*-0*-0-10-12-x----|
C-10-0*0*-0-10-0*0*-0-10-0*-0-3-0*-0*-0-10-0*-0*-0-10-12-x----|

D-------------------------------------------------------------|
A-------------------------------------------------------------|
F----------------------------------------------------11-------|
C-------------------------------------------------------------|
G-10-0*0*-0-10-0*0*-0-10-0*-0-3-0*-0*-0-10-0*-0*--------------|
C-10-0*0*-0-10-0*0*-0-10-0*-0-3-0*-0*-0-10-0*-0*--------------|

D-------------------------------------------------------------|
A-------------------------------------------------------------|
F-------------------------------------------------------------|
C-------------------------------------------------------------|
G-10-0-0-0-10-0-0-0-10-0-0-3-0-0-0-10-0-0-0-10h12-10p0--------|
C-10-0-0-0-10-0-0-0-10-0-0-3-0-0-0-10-0-0-0-10h12-10p0--------|

D-------------------------------------------------------------|
A-------------------------------------------------------------|
F-------------------------------------------------------------|
C-------------------------------------------------------------|
G-10-0-0-0-10-0-0-0-10-0-0-3-0-0-0-10-0-0-0-10h12-10\0--------|
C-10-0-0-0-10-0-0-0-10-0-0-3-0-0-0-10-0-0-0-10h12-10\0--------|

Verse (clean with phaser)

D-------------------------------------------------------------|
A-------------------------------------------------------------|
F---------0----------0------------0----------0----------------|
C---4---4---4---4------4----4---4---4---4------4--------------|
G-2---2-------2----2------0---0-------0----0------------------|
C-------------------------------------------------------------|

Continued Verse (distorted)

D-------------------------------------------------------------------------|
A-------------------------------------------------------------------------|
F-----0-----------0-----------0-----------0-----------0-----------0-------|
C---4---4---4---4---4---4---4---4---4---4---4---4---4---4---4---4---4-----|
G-------------------------2-------2---0-------0---------------------------|
C-4-------4---5-------5---------------------------4-------4---5-------5-*-|

Chorus

D-------------------------------------------------------------------------|
A-------------------------------------------------------------------------|
F-11-11-11--11-11-11--9-9-9--9-9-9--7-7-7--7-7-7--10-10-10--10-10/12-1212-|
C-x--x--x---x--x--x---7-7-7--7-7-7--5-5-5--5-5-5--8--8--8---8--8-/10-1010-|
G-9--9--9---9--9--9---7-7-7--7-7-7--5-5-5--5-5-5--8--8--8---8--8-/10-1010-|
C-0--0--0---0--0--0---7-7-7--7-7-7--5-5-5--5-5-5--8--8--8---8--8-/10-1010-|

D-------------------------------------------------------------------------|
A-------------------------------------------------------------------------|
F-11-11-11--11-11-11--9-9-9--9-9-9--7-7-7--7-7-7--10-10-10--10-10\9/10----|
C-x--x--x---x--x--x---7-7-7--7-7-7--5-5-5--5-5-5--8--8--8---8--x-\x/x-----|
G-9--9--9---9--9--9---7-7-7--7-7-7--5-5-5--5-5-5--8--8--8---8--8-\7/8-----|
C-0--0--0---0--0--0---7-7-7--7-7-7--5-5-5--5-5-5--8--8--8---8-------------|

D-------------------------------------------------------------|
A-------------------------------------------------------------|
F-------------------------------------------------------------|
C-------------------------------------------------------------|
G-10-0-0-0-10-0-0-0-10-0-0-3-0-0-0-10-0-0-0-10h12-10\0--------|
C-10-0-0-0-10-0-0-0-10-0-0-3-0-0-0-10-0-0-0-10h12-10\0--------|

Verse (clean with phaser)

D-------------------------------------------------------------|
A-------------------------------------------------------------|
F-------0-----------------------------------------------------|
C---4-----4---4---4-------------------------------------------|
G-2---2-----2-2-----0-----------------------------------------|
C-------------------------------------------------------------|

Continued Verse (distorted)

D-------------------------------------------------------------|
A-------------------------------------------------------------|
F-----0-----------0-----------0-----------0-------------------|
C---4---4---4---4---4---4---4---4---4---4---4---4-------------|
G-2-------2---0-------0---------------------------------------|
C-------------------------4-------4---5-------5---------------|

D-------------------------------------------------------------|
A-------------------------------------------------------------|
F-----0-----------0-----------0-----------0-------------------|
C---4---4---4---4---4---4---4---4---4---4---4-----------------|
G-2-------2---0-------0---------------------------------------|
C-------------------------4-------4---5-------5-*-------------|

Chorus

Bridge

Guitar 1:
D-------------------------------------------------------------|
A-------------------------------------------------------------|
F-----------------7/9\7-----------------7/9\7-----------------|
C-9-x-9-x-9-x-9-x-x/x\x-9-x-9-x-9-x-9-x-x/x\x-----------------|
G-9-x-9-x-9-x-9-x-5/7\5-9-x-9-x-9-x-9-x-5/7\5-----------------|
C-9-x-9-x-9-x-9-x-------9-x-9-x-9-x-9-x-----------------------|

Guitar 2:
D-------------------------------------------------------------|
A-------------------------------------------------------------|
F-----------------11/12\11-----------------11/12\11-----------|
C-9-x-9-x-9-x-9-x-x-/x-\x--9-x-9-x-9-x-9-x-x-/x-\x------------|
G-9-x-9-x-9-x-9-x-9-/10\9--9-x-9-x-9-x-9-x-9-/10\9------------|
C-9-x-9-x-9-x-9-x----------9-x-9-x-9-x-9-x--------------------|

Guitar 1:
D-------------------------------------------------------------|
A-------------------------------------------------------------|
F-----------------14/16\14-----------------14/16\14-----------|
C-5-x-5-x-5-x-5-x-x-/x-\x--5-x-5-x-5-x-5-x-x-/x-\x------------|
G-5-x-5-x-5-x-5-x-12/14\12-5-x-5-x-5-x-5-x-12/14\12-----------|
C-5-x-5-x-5-x-5-x----------5-x-5-x-5-x-5-x--------------------|

Guitar 2:
D-------------------------------------------------------------|
A-------------------------------------------------------------|
F-----------------11/12\11-----------------11/12\11-----------|
C-5-x-5-x-5-x-5-x-x-/x-\x--5-x-5-x-5-x-5-x-x-/x-\x------------|
G-5-x-5-x-5-x-5-x-9-/10\9--5-x-5-x-5-x-5-x-9-/10\9------------|
C-5-x-5-x-5-x-5-x----------5-x-5-x-5-x-5-x--------------------|

D-------------------------------------------------------------|
A------------------------------12^----------------------------|
F-----------11^-----------------------------------------------|
C-9--7--5---------99*-77*-55---------9--7--5-5-5-5-5-5--------|
G-9--7--5---------99*-77*-55---------9--7--5-5-5-5-5-5--------|
C-9--7--5---------99*-77*-55---------9--7--5-5-5-5-5-5--------|
                                             PM-----

Chorus

Throughout the second half of the chorus, this is played:
D-------------------------------------------------------------|
A---7-10-8-7-------10-8-7-------10-8-7-------10-8-10/11\10----|
F-7----------7---7------------7------------7------------------|
C--------------7----------7-5----------5-8--------------------|
G-------------------------------------------------------------|
C-------------------------------------------------------------|

Outro

D-------------------------------------------------------------|
A-------------------------------------------------------------|
F-------------------------------------------------------------|
C-------------------------------------------------------------|
G-10-0-0-0-10-0-0-0-10-0-0-3-0-0-0-10-0-0-0-10h12-10p0--------|
C-10-0-0-0-10-0-0-0-10-0-0-3-0-0-0-10-0-0-0-10h12-10p0--------|

D-------------------------------------------------------------|
A-------------------------------------------------------------|
F-------------------------------------------------------------|
C-------------------------------------------------------------|
G-10-0-0-0-10-0-0-0-10-0-0-3-0*0*-0-10-0*0*-0-10h12-*---------|
C-10-0-0-0-10-0-0-0-10-0-0-3-0*0*-0-10-0*0*-0-10h12-*---------|

* = pause
h = hammer on
p = pick off
\ = slide down
/ = slide up
^ = bend note





Comments


Popular Breaking Benjamin tabs & chords
So Cold 4 Bass Tabs
You Fight Me Bass Tabs
Dear Agony 3 Chords
Breakdown 1 Tabs
Diary Of Jane 4 Tabs
Forever Intro Tabs
Skin 3 Tabs
So Cold 1 Tabs
You 3 Tabs
You Intro Tabs


Song lyrics



↑ Back to top | Tablatures and chords are parodies/interpretations of the original songs. You may use it for private study, scholarship, research or language learning purposes only
© 2014 AZChords.com Contact us | Privacy policy | DMCA | Add/correct tabs | Request tabs | Top 50 tabs