>
 >
Crawl

Crawl Guitar Tabs

Breaking Benjamin - Crawl chords, tabs, tablatures, lyrics

Guitar lessons | Add/correct | Request | Top 50 tabs Artists:  A B C D E F G H I J K L M N O P Q R S T U V W X Y Z 0-9

Crawl Guitar Tabs – Breaking Benjamin

CD, Sheet music, Poster

Do you like Crawl? Share with your friends now
Bass TabsChordsTabsTabs v2Tabs v3Tabs v4
Breaking Benjamin
Tuning Bb F Bb Eb G C

/-slide up                          \-slide down                          pm-palm mute
x-muted strum                       h-hammer on                           p-pull off

Intro: Guitar 1 Distorted (Ben)
 C|-------------------------------------------------------------------------------------|
 G|-------------------------------------------------------------------------------------|
Eb|-------------------------------------------------------------------------------------|
Bb|-------------------------------------------------------------------------------------|
 F|--7-7-7--2-2-2--3-3-3--3-3-3-------3-2----7-7-7--2-2-2--3-3-3--3-3-3--2-2---2--------|
Bb|--7-7-7--2-2-2--3-3-3---------2-2---------7-7-7--2-2-2--3-3-3---------2-2---2--------|

Intro: Guitar 1 Distorted
 C|-------------------------------------------------------------------------------------|
 G|-------------------------------------------------------------------------------------|
Eb|-------------------------------------------------------------------------------------|
Bb|-------------------------------------------------------------------------------------|
 F|--7-7-7--2-2-2--3-3-3--3-3-3-------3-2----3--3--3--3----3--3--3--3----3---2----------|
Bb|--7-7-7--2-2-2--3-3-3---------2-2---------3--3--3--3----3--3--3--3----3---2----------|

Intro: Guitar 1 Distorted
 C|-------------------------------------------------------------------------------------|
 G|-------------------------------------------------------------------------------------|
Eb|-------------------------------------------------------------------------------------|
Bb|-------------------------------------------------------------------------------------|
 F|--7-7-7--2-2-2--3-3-3--3-3-3-------3-2----7-7-7--2-2-2--3-3-3--2-2-2--3-2------------|
Bb|--7-7-7--2-2-2--3-3-3---------2-2---------7-7-7--2-2-2--3-3-3--2-2-2------5-2--------|
                                                                                        |
Intro: Guitar 2 (Aaron)                                                                 |
 C|-------------------------------------------------------------------------------------|
 G|-101010-181818-171717-131313-1515-1717---202020-181818-171717-1313-1515-17-17--------|
Eb|--x-x-x--x-x-x--x-x-x--x-x-x--x-x--x-x----x-x-x--x-x-x--x-x-x--x-x--x-x--x--x--------|
Bb|--7-7-7-151515-141414-101010-1212-1414---171717-151515-141414-1010-1212-14-14--------|
 F|-------------------------------------------------------------------------------------|
Bb|-------------------------------------------------------------------------------------|

Intro: Guitar 1 Distorted
 C|-------------------------------------------------------------------------------------|
 G|-------------------------------------------------------------------------------------|
Eb|-------------------------------------------------------------------------------9-----|
Bb|-------------------------------------------------------------------------------7-----|
 F|--7-7-7--2-2-2--3-3-3--3-3-3-------3-2----3--3--3--3----3--3--3--3----3---2----7-----|
Bb|--7-7-7--2-2-2--3-3-3---------2-2---------3--3--3--3----3--3--3--3----3---2----7-----|
                                                                                        |
Intro: Guitar 2 (Aaron)                                                                 |
 C|-------------------------------------------------------------------------------------|
 G|-101010-181818-171717-131313-1515-1717---13-13-13-13---13-13-13-13---13--12----------|
Eb|--x-x-x--x-x-x--x-x-x--x-x-x--x-x--x-x----x--x--x--x----x--x--x--x----x---x----------|
Bb|--7-7-7-151515-141414-101010-1212-1414---10-10-10-10---10-10-10-10---10---9----------|
 F|-------------------------------------------------------------------------------------|
Bb|-------------------------------------------------------------------------------------|

Verse 1: Guitar 2 Clean with light Delay (where marked)
 C|----------------------0--------------------------------------------------------------|
 G|-------------------------------------------------------------------------------------|
Eb|----------12-12--------------12-12--------------12-12--------------12-12-------------|
Bb|------10--------10-----------------10-------10--------10-------10--------10----------|
 F|--12------------------------------------10-----------------10------------------------|
Bb|-------------------------------------------------------------------------------------|
                                |DELAY|

Verse 1: Guitar 2 Clean with light Delay (where marked)
 C|----------------------0--------------------------------------------------------------|
 G|-------------------------------------------------------------------------------------|
Eb|----------12-12--------------12-12--------------12-12--------------12-12-------------|
Bb|------10--------10-----------------10-------10--------10-------10--------10--9/10\9--|
 F|---8------------------------------------10-----------------10------------------------|
Bb|-------------------------------------------------------------------------------------|
                                |DELAY|

Pre Chorus: Guitar 1 PLAY PRE CHORUS 2 TIMES
 C|-------------------------------------------------------------------------------------|
 G|-------------------------------------------------------------------------------------|
Eb|-------------------------------------------------------------------------------------| 
Bb|--7----------------------------------------------------------------------------------|
 F|--7-7-7-7-7-7-7-7-7-7-7-7-7-10101010------5-5-5-5-5-5-5-5-5-5-5-5-9-9-9-9------------|
Bb|--7-7-7-7-7-7-7-7-7-7-7-7-7-10101010------5-5-5-5-5-5-5-5-5-5-5-5-9-9-9-9------------|
       pmpmpmpmpmpmpmpmpmpmpmpmpmpmpmpm      pmpmpmpmpmpmpmpmpmpmpmpmpmpmpmpm           |
                                                                                        |
Pre Chorus: Guitar 2                                                                    |
 C|------------------------------------------------------------------0------------------|
 G|--------0---------------------------------------0------------------------------------|
Eb|-------------------------------------------------------------------------------------|
Bb|-------------10--------------------------------------10------------------------------|
 F|--12--------------------------------------10-----------------------------------------|
Bb|-------------------------------------------------------------------------------------|

Pre Chorus: Guitar 1
 C|-------------------------------------------------------------------------------------|
 G|-------------------------------------------------------------------------------------|
Eb|-------------------------------------------------------------------------------------|
Bb|-------------------------------------------------------------------------------------|
 F|----3-3-3-3-3-3-3-3-3-3-3-3-5-5-5-5-------3-3-3-3-3-3-3-3--3--2---3--2---------------|
Bb|----3-3-3-3-3-3-3-3-3-3-3-3-5-5-5-5-------3-3-3-3-3-3-3-3--3--2---3--2---------------|
       pmpmpmpmpmpmpmpmpmpmpmpmpmpmpmpm      pmpmpmpmpmpmpmpm                           |
                                                                                        |
Pre Chorus: Guitar 2                                                                    |
 C|-------------------------------------------------------------------------------------|
 G|--------0---------------------------------------0------------------------------------|
Eb|-------------------------------------------------------------------------------------|
Bb|-------------10--------------------------------------10------------------------------|
 F|---8---------------------------------------8-----------------------------------------|
Bb|-------------------------------------------------------------------------------------|

Chorus 1: Guitar 1 PLAY CHORUS 1 TWO TIMES
 C|-------------------------------------------------------------------------------------|
 G|-------------------------------------------------------------------------------------|
Eb|-------------------------------------------------------------------------------------|
Bb|--7-7-7-7---------------5-5-5----------------3---------3----3-----3---------x--5-----|
 F|--7-7-7-7---------------5-5-5----------------3---------3----3-----3---------x--5-----|
Bb|--7-7-7-7---------------5-5-5----------------3---------3----3-----3---------x--5-----|
                                                                                        |
Chorus 1: Guitar 2                                                                      |
 C|-------------------------------------------------------------------------------------|
 G|------------8---------------------8--------------------8--------------------8--------|
Eb|-------------------------------------------------------------------------------------|
Bb|--7-10-9-10---10-9-10---7-10-9-10---10-9-10--7-10-9-10---10-9-10--9-10-9-10---10-9-10|
 F|-------------------------------------------------------------------------------------|
Bb|-------------------------------------------------------------------------------------|

Chorus 2: Guitar 1 PLAY CHORUS 2 TWO TIMES
 C|-------------------------------------------------------------------------------------|
 G|-------------------------------------------------------------------------------------|
Eb|-------------------------------------------------------------------------------------|
Bb|--7---7---7---7---7-/10---10---10---10----5---5---5---5---5--\3-----3--/5------------|
 F|--7---7---7---7---7-/10---10---10---10----5---5---5---5---5--\3-----3--/5------------|
Bb|--7---7---7---7---7-/10---10---10---10----5---5---5---5---5--\3-----3--/5------------|
                                                                                        |
Chorus 2: Guitar 2                                                                      |
 C|------------12-------13------12---------------------12-------10------10-12-----------|
 G|--10---13--------13------13------13------------13--------13------13------------------|
Eb|------------------------------------------12-----------------------------------------|
Bb|-------------------------------------------------------------------------------------|
 F|-------------------------------------------------------------------------------------|
Bb|-------------------------------------------------------------------------------------|

Post Chorus: Guitar 1 Distorted
 C|-------------------------------------------------------------------------------------|
 G|-------------------------------------------------------------------------------------|
Eb|-------------------------------------------------------------------------------------|
Bb|-------------------------------------------------------------------------------------|
 F|--7-7-7--2-2-2--3-3-3--3-3-3-------3-2----7-7-7--2-2-2--3-3-3--3-3-3--2-2---2--------|
Bb|--7-7-7--2-2-2--3-3-3---------2-2---------7-7-7--2-2-2--3-3-3---------2-2---2--------|
                                                                                        |
Post Chorus: Guitar 2 (Aaron)                                                           |
 C|-------------------------------------------------------------------------------------|
 G|-101010-181818-171717-131313-1515-1717---202020-181818-171717-1313-1515-17-17--------|
Eb|--x-x-x--x-x-x--x-x-x--x-x-x--x-x--x-x----x-x-x--x-x-x--x-x-x--x-x--x-x--x--x--------|
Bb|--7-7-7-151515-141414-101010-1212-1414---171717-151515-141414-1010-1212-14-14--------|
 F|-------------------------------------------------------------------------------------|
Bb|-------------------------------------------------------------------------------------|

Post Chorus: Guitar 1 Distorted
 C|-------------------------------------------------------------------------------------|
 G|-------------------------------------------------------------------------------------|
Eb|-------------------------------------------------------------------------------9-----|
Bb|-------------------------------------------------------------------------------7-----|
 F|--7-7-7--2-2-2--3-3-3--3-3-3-------3-2----3--3--3--3----3--3--3--3----3---2----7-----|
Bb|--7-7-7--2-2-2--3-3-3---------2-2---------3--3--3--3----3--3--3--3----3---2----7-----|
                                                                                        |
Post Chorus: Guitar 2                                                                   |
 C|-------------------------------------------------------------------------------------|
 G|-101010-181818-171717-131313-1515-1717---13-13-13-13---13-13-13-13---13--12----------|
Eb|--x-x-x--x-x-x--x-x-x--x-x-x--x-x--x-x----x--x--x--x----x--x--x--x----x---x----------|
Bb|--7-7-7-151515-141414-101010-1212-1414---10-10-10-10---10-10-10-10---10---9----------|
 F|-------------------------------------------------------------------------------------|
Bb|-------------------------------------------------------------------------------------|

Verse 2: Guitar 2 Clean with light Delay (where marked)
 C|----------------------0--------------------------------------------------------------|
 G|-------------------------------------------------------------------------------------|
Eb|----------12-12--------------12-12--------------12-12--------------12-12-------------|
Bb|------10--------10-----------------10-------10--------10-------10--------10----------|
 F|--12------------------------------------10-----------------10------------------------|
Bb|-------------------------------------------------------------------------------------|
                                |DELAY|

Verse 2: Guitar 2 Clean with light Delay (where marked)
 C|----------------------0--------------------------------------------------------------|
 G|-------------------------------------------------------------------------------------|
Eb|----------12-12--------------12-12--------------12-12--------------12-12-------------|
Bb|------10--------10-----------------10-------10--------10-------10--------10--9/10\9--|
 F|---8------------------------------------10-----------------10------------------------|
Bb|-------------------------------------------------------------------------------------|
                                |DELAY|

Pre Chorus: Guitar 1 PLAY PRE CHORUS 2 TIMES
 C|-------------------------------------------------------------------------------------|
 G|-------------------------------------------------------------------------------------|
Eb|-------------------------------------------------------------------------------------| 
Bb|--7----------------------------------------------------------------------------------|
 F|--7-7-7-7-7-7-7-7-7-7-7-7-7-10101010------5-5-5-5-5-5-5-5-5-5-5-5-9-9-9-9------------|
Bb|--7-7-7-7-7-7-7-7-7-7-7-7-7-10101010------5-5-5-5-5-5-5-5-5-5-5-5-9-9-9-9------------|
       pmpmpmpmpmpmpmpmpmpmpmpmpmpmpmpm      pmpmpmpmpmpmpmpmpmpmpmpmpmpmpmpm           |
                                                                                        |
Pre Chorus: Guitar 2                                                                    |
 C|------------------------------------------------------------------0------------------|
 G|--------0---------------------------------------0------------------------------------|
Eb|-------------------------------------------------------------------------------------|
Bb|-------------10--------------------------------------10------------------------------|
 F|--12--------------------------------------10-----------------------------------------|
Bb|-------------------------------------------------------------------------------------|

Pre Chorus: Guitar 1
 C|-------------------------------------------------------------------------------------|
 G|-------------------------------------------------------------------------------------|
Eb|-------------------------------------------------------------------------------------|
Bb|-------------------------------------------------------------------------------------|
 F|----3-3-3-3-3-3-3-3-3-3-3-3-5-5-5-5-------3-3-3-3-3-3-3-3--3--2---3--2---------------|
Bb|----3-3-3-3-3-3-3-3-3-3-3-3-5-5-5-5-------3-3-3-3-3-3-3-3--3--2---3--2---------------|
       pmpmpmpmpmpmpmpmpmpmpmpmpmpmpmpm      pmpmpmpmpmpmpmpm                           |
                                                                                        |
Pre Chorus: Guitar 2                                                                    |
 C|-------------------------------------------------------------------------------------|
 G|--------0---------------------------------------0------------------------------------|
Eb|-------------------------------------------------------------------------------------|
Bb|-------------10--------------------------------------10------------------------------|
 F|---8---------------------------------------8-----------------------------------------|
Bb|-------------------------------------------------------------------------------------|

Chorus 1: Guitar 1 PLAY CHORUS 1 TWO TIMES
 C|-------------------------------------------------------------------------------------|
 G|-------------------------------------------------------------------------------------|
Eb|-------------------------------------------------------------------------------------|
Bb|--7-7-7-7---------------5-5-5----------------3---------3----3-----3---------x--5-----|
 F|--7-7-7-7---------------5-5-5----------------3---------3----3-----3---------x--5-----|
Bb|--7-7-7-7---------------5-5-5----------------3---------3----3-----3---------x--5-----|
                                                                                        |
Chorus 1: Guitar 2                                                                      |
 C|-------------------------------------------------------------------------------------|
 G|------------8---------------------8--------------------8--------------------8--------|
Eb|-------------------------------------------------------------------------------------|
Bb|--7-10-9-10---10-9-10---7-10-9-10---10-9-10--7-10-9-10---10-9-10--9-10-9-10---10-9-10|
 F|-------------------------------------------------------------------------------------|
Bb|-------------------------------------------------------------------------------------|

Chorus 2: Guitar 1 PLAY CHORUS 2 TWO TIMES
 C|-------------------------------------------------------------------------------------|
 G|-------------------------------------------------------------------------------------|
Eb|-------------------------------------------------------------------------------------|
Bb|--7---7---7---7---7-/10---10---10---10----5---5---5---5---5--\3-----3--/5------------|
 F|--7---7---7---7---7-/10---10---10---10----5---5---5---5---5--\3-----3--/5------------|
Bb|--7---7---7---7---7-/10---10---10---10----5---5---5---5---5--\3-----3--/5------------|
                                                                                        |
Chorus 2: Guitar 2                                                                      |
 C|------------12-------13------12---------------------12-------10------10-12-----------|
 G|--10---13--------13------13------13------------13--------13------13------------------|
Eb|------------------------------------------12-----------------------------------------|
Bb|-------------------------------------------------------------------------------------|
 F|-------------------------------------------------------------------------------------|
Bb|-------------------------------------------------------------------------------------|

Bridge: Guitar 1
 C|---------------------------------------------------------------------0---------------|
 G|---------------------------------------------------------------------0---------------|
Eb|-------------------------------------------------------------------------------------|
Bb|--7------7------7------7-------------------------------------------------------------|
 F|--7------7------7------7------------------------------0--2----3--2-------------------|
Bb|--7------7------7------7------10p9--0--7h9--0--7p6----0--2----3--2-------------------|
                                                                                        |
Bridge: Guitar 2                                                                        |
 C|-------------------------------------------------------------------------------------|
 G|-10-----10-----10-----10-------------------------------------------------------------|
Eb|--x------x------x------x-------------------------------------------------------------|
Bb|--7------7------7------7-------------------------------------------------------------|
 F|-------------------------------------------------------------------------------------|
Bb|-------------------------------------------------------------------------------------|

Bridge: Guitar 1
 C|---------------------------------------------0---------------------------------------|
 G|---------------------------------------------0---------------------------------------|
Eb|-------------------------------------------------------------------------------------|
Bb|-------------------------------------------------------------------------------------|
 F|--2--3----5--3----------------0--2----3--2-------2--3----5--3------------------------|
Bb|--2--3----5--3----7h9--7p6----0--2----3--2-------2--3----5--3----7p6--7p9------------|

Bridge: Guitar 1
 C|-----------------0----------------------------------------------0--------------------|
 G|-----------------0----------------------------------------------0--------------------|
Eb|-------------------------------------------------------------------------------------|
Bb|-------------------------------------------------------------------------------------|
 F|--0--2----3--2-------2--3----5--3----------------0--2----3--2------------------------|
Bb|--0--2----3--2-------2--3----5--3----7h9--7p6----0--2----3--2------------------------|
                                                                                        |
Bridge: Guitar 2 (STRUM)                                                                |
 C|-------------------------------------------------------------------------------------|
 G|-12---------10---9------13---12--15--13-12--13--12---------10---9--------------------|
Eb|--x----------x---x-------x----x---x---x--x---x---x----------x---x--------------------|
Bb|--9----------7---6------10----9--12--10--9--10---9----------7---6--------------------|
 F|-------------------------------------------------------------------------------------|
Bb|-------------------------------------------------------------------------------------|

Bridge: Guitar 1
 C|-------------------------------------------------------------------------------------|
 G|-------------------------------------------------------------------------------------|
Eb|-------------------------------------------------------------------------------------|
Bb|-----------------------------------------------------------------x--5----------------|
 F|--2--3----5--3------------5------------7-------------------------x--5----------------|
Bb|--2--3----5--3------------5------------7-------------------------x--5----------------|
                                                                                        |
Bridge: Guitar 2 (STRUM)                                                                |
 C|------------------------------------------0------------------------------------------|
 G|----13-----------8-------12------------------0---------------------------------------|
Eb|-----x-----------x--------x---------------------5------------------------------------|
Bb|----10-----------5--------9------------7---------------------------------------------|
 F|-------------------------------------------------------------------------------------|
Bb|-------------------------------------------------------------------------------------|

Chorus 3: Guitar 1 PLAY CHORUS 3 TWO TIMES
 C|-------------------------------------------------------------------------------------|
 G|-------------------------------------------------------------------------------------|
Eb|-------------------------------------------------------------------------------------|
Bb|--7-7-7-7---------------5-5-5----------------3---------3----3-----3---------x--5-----|
 F|--7-7-7-7---------------5-5-5----------------3---------3----3-----3---------x--5-----|
Bb|--7-7-7-7---------------5-5-5----------------3---------3----3-----3---------x--5-----|
                                                                                        |
Chorus: Guitar 2                                                                        |
 C|---------------------------------------------------------------------------12--------|
 G|---------------------12-12-----------12-12--13---------12--13--15--13--15------------|
Eb|----------14-14-12-12-----12-12-14-14------------------------------------------------|
Bb|-------------------------------------------------------------------------------------|
 F|-------------------------------------------------------------------------------------|
Bb|-------------------------------------------------------------------------------------|

Chorus 2: Guitar 1 PLAY CHORUS 2 TWO TIMES
 C|-------------------------------------------------------------------------------------|
 G|-------------------------------------------------------------------------------------|
Eb|-------------------------------------------------------------------------------------|
Bb|--7---7---7---7---7-/10---10---10---10----5---5---5---5---5--\3-----3--/5------------|
 F|--7---7---7---7---7-/10---10---10---10----5---5---5---5---5--\3-----3--/5------------|
Bb|--7---7---7---7---7-/10---10---10---10----5---5---5---5---5--\3-----3--/5------------|
                                                                                        |
Chorus 2: Guitar 2                                                                      |
 C|------------12-------13------12---------------------12-------10------10-12-----------|
 G|--10---13--------13------13------13------------13--------13------13------------------|
Eb|------------------------------------------12-----------------------------------------|
Bb|-------------------------------------------------------------------------------------|
 F|-------------------------------------------------------------------------------------|
Bb|-------------------------------------------------------------------------------------|

Outro 1: Guitars 1 & 2 Distorted PLAY OUTRO 1 TWO TIMES
 C|-------------------------------------------------------------------------------------|
 G|-------------------------------------------------------------------------------------|
Eb|------------------------------x-x--x-------------------------------------------------|
Bb|------------------------------x-x--x-------------------------------------------------|
 F|--7------2------3------2------x-x--x------7------2------3------2------3-2------------|
Bb|--7------2------3------2------x-x--x------7------2------3------2----------5-2--------|

Outro 2: Guitars 1 & 2 Distorted
 C|-------------------------------------------------------------------------------------|
 G|-------------------------------------------------------------------------------------|
Eb|-------------------------------------------------------------------------------------|
Bb|-------------------------------------------------------------------------------------|
 F|--7--7--7--7-------7--7--7-----------------------------------------------------------|
Bb|--7--7--7--7-------7--7--7-----------------------------------------------------------|

Finished





Comments


Popular Breaking Benjamin tabs & chords
Forget It 3 Bass Tabs
Into The Nothing Bass Tabs
Give Me A Sign 8 Chords
Had Enough 1 Chords
You Fight Me Chords
Anthem Of The Angels Tabs
Stay Alive Forever Tabs
The Diary Of Jane Tabs
Topless 2 Tabs
You Intro Tabs


Song lyrics



↑ Back to top | Tablatures and chords are parodies/interpretations of the original songs. You may use it for private study, scholarship, research or language learning purposes only
© 2014 AZChords.com Contact us | Privacy policy | DMCA | Add/correct tabs | Request tabs | Top 50 tabs