» » »

Brand New Sin, My World Tabs (ver.1)

Artists:  A B C D E F G H I J K L M N O P Q R S T U V W X Y Z # 

My World Tabs (ver.1)

Brand New Sin Tabs
Rating:
0/5 (0 votes)
My World lessons Tabs too difficult? Try these video lessons and learn fast
                Brand New Sin
        My World


This is a really good song, so download it and learn it.
Tuning: CGCFAD


Main Riff + Chorus
D---------------------------------------------------------------
A---------------------------------------------------------------
F---------------------------------------------------------------
C------12-----12-12-12------10-----10-10-10-------5--5-5-5-3-5-3
G------12-----12-12-12------10-----10-10-10-------5--5-5-5-3-5-3
C------12-----12-12-12------10-----10-10-10-------5--5-5-5-3-5-3



-------------------------------------------------
-------------------------------------------------
-------------------------------------------------
------12-----12-12-12-------10-----10-10-10-x-10-
------12-----12-12-12-------10-----10-10-10-x-10-
------12-----12-12-12-------10-----10-10-10-x-10-

Verse Riff

----------------
----------------
----------------
---0-0----------
---0-0----------
---0-0----------
   l----l PM

Riff C

-----------------------------------------------------
-----------------------------------------------------
-----------------------------------------------------
-12-12-12-12-12-12-12-12--15-15-15-15-15-15-15-15--17
-12-12-12-12-12-12-12-12--15-15-15-15-15-15-15-15--17 
-12-12-12-12-12-12-12-12--15-15-15-15-15-15-15-15--17

Just add a few pick slides where neeeded


Order:
Intro Solo
Main Riff x2
Verse Riff (listen to the song)
Chours (main) x2
Verse 
Chorus x2
Riff C x2
Solo w/ chorus riffx2
Verse
Chorus x4


I am working on the intro solo and the solo .....
            

comments powered by Disqus
↑ Back to top | Brand New Sin Tabs for My World. Lyrics for acoustic guitar and electric guitar. Tablatures and chords are parodies/interpretations of the original songs. You may use it for private study, scholarship, research or language learning purposes only