» » »

My World Tabs (ver.3)

Artists:  A B C D E F G H I J K L M N O P Q R S T U V W X Y Z # 

My World Tabs (ver.3)

Brand New Sin
Rating:
0/5 (0 votes)

Hard to play? Try these video lessons and learn fast.
                (Intro)
Brand New Sin
My World
Tunning Drop D Down one step (CGCFAD)
Intro

D|-----------------------------------------------------------|
A|-----------------------------------------------------------|
F|-------------------------------------------------------5---|
C|-5h7-5/3-5p3-5----------------------0-00-5h7-5/3-5-X-X-5---|
G|-5---5/3-3---3----------------------0-00-5---5/3-3-X-X-3---|
C|---------------0-3-5~0-3-5~0-3-5-3~-0-00-----------X-X-----|
                 pm.   pm.   pm.   ph pm..

Chorus

D|-------------------------------------------------|
A|-------------------------------------------------|
F|-----------------------------------------------5-|
C|--5h7-5h7-5----------------------5h7-5h7-5-----5-|
G|--5---5---3-0-3-5-0-3-5-0-3-5-3--5---5---3-X-X-3-|
C|-0----------0-3-5-0-3-5-0-3-5-3-0----------X-X---|
              pm    pm    pm

Verse

D|---------------------------------------------------------|
A|---------------------------------------------------------|
F|---------------------------------------------------------|
C|-00--------------00--------------00--------------00------|
G|-00--------------00--------------00--------------00------|
C|-00--------------00--------------00--------------00------|
   pm              pm              pm              pm

End 1  End 2
D|---  ---|
A|---  ---|
F|---  -7-|
C|-0-  -7-|
G|-0-  -5-|
C|-0-  -0-|
  pm

Bridge

D|---------------------------------|
A|---------------------------------|
F|----------------5555555555555555-|
C|00000000333333335555555555555555-
G|00000000333333333333333333333333-
C|0000000033333333-----------------

This is one part in the solo that I picked up so far

D|-10----------------|
A|----13p10-13-(13)^-|
F|-------------------|
C|-------------------|
G|-------------------|
C|-------------------|

I'm working on the solo and I hope to have it soon.
            
Hard to play? Try these video lessons and learn fast. | Correct




comments powered by Disqus
↑ Back to top | Tablatures and chords are parodies/interpretations of the original songs. You may use it for private study, scholarship, research or language learning purposes only