» » »

Thunder Tabs

Artists:  A B C D E F G H I J K L M N O P Q R S T U V W X Y Z # 

Thunder Tabs

(ver. 1)
Boys Like Girls Tabs
 Rating:
4/5 (4 votes)
    Thunder lessons Tabs too difficult? Try these video lessons and learn fast
                Here is the second guitar part for this song.  There are enough chords around for this 
so I don't need to post those.


FIRST PART
e------5--------5---------5---------5---------5---------5----|
B----7---7----7---7-----5----5----5---5-----3----3----3----3-|
G--7--------7--------6----------6--------4----------4--------|
D------------------------------------------------------------|
A------------------------------------------------------------|
E------------------------------------------------------------|


e-------5--------5--------|
B-----5---5----5---5------|
G--6---------6------------|
D-------------------------|
A-------------------------|
E-------------------------|


SECOND PART (I tried to read between the lines...)
e------5--------5---------5---------5--------5--------5----5~-|
B----7---7----5---5-----5----5----7---7----7---7----7---7--5~-|
G--7-----------------6----------7--------7--------7--------6~-|
D-----------7-------------------------------------------------|
A-------------------------------------------------------------|
E-------------------------------------------------------------|


That's it.  Piece of cake.  The second verse is the same as the first, and everything 
is just played as chords.
            
Submit corrections

↑ Back to top | Boys Like Girls Tabs for Thunder. Lyrics for acoustic guitar and electric guitar. Tablatures and chords are parodies/interpretations of the original songs. You may use it for private study, scholarship, research or language learning purposes only