» » »

Boys Like Girls, Heels Over Head Tabs (ver.1)

Artists:  A B C D E F G H I J K L M N O P Q R S T U V W X Y Z # 

Heels Over Head Tabs (ver.1)

Boys Like Girls Tabs
 Rating:
4/5 (4 votes)
Heels Over Head lessons Tabs too difficult? Try these video lessons and learn fast
1
                This is my First Tab.. but basically .. cos.. it reli annoys me that u get some truely 
tabs. And i hope this is all right.. let me know if its not.  thnks

jim - bob

Intro (Palm Mute)
e|-----------------------------------------------------------------|
B|-----------------------------------------------------------------|
G|---------------------------------3-3-3-3-3-3-3-3-3-3-3-3-3-3-3-3-|
D|-3-3-3-3-3-3-3-3-3-3-3-3-3-3-3-3-3-3-3-3-3-3-3-3-3-3-3-3-3-3-3-3-|
A|-3-3-3-3-3-3-3-3-3-3-3-3-3-3-3-3-1-1-1-1-1-1-1-1-1-1-1-1-1-1-1-1-|
E|-1-1-1-1-1-1-1-1-1-1-1-1-1-1-1-1---------------------------------|

Intro (continued)
e|-----------------------------------------------------------------|
B|-----------------------------------------------------------------|
G|-----------------------------------------------------------------|
D|---12-12---10-10--8-----12-12--10-10--8--------------------------|x2
A|---12-12---10-10--8-----12-12--10-10--8--------------------------|
E|---10-10----8--8--6-----10-10---8--8--6--------------------------|

Pre - Chorus ( I'm the first to fall... last to know... where'd you go?? )
e|-----------------------------------------------------------------|
B|---------7-----------------7-------------------------------------|
G|------7----7---7-------7-----7---7-------------------------------|
D|----5--5----5--------5--5------5---------------------------------|
A|-----------------------------------------------------------------|
E|-----------------------------------------------------------------|

First Chorus
e|-------------------------------------------------------|
B|-------------------------------------------------------|
G|----------5-5-x---------------------------5-5-x--------|
D|-3-x-x-x--5-5-x--7/8-x-x-8-8-x-x--3-x-x-x-5-5-x-5/-8-8-|
A|-3-x-x-x--3-3-x--7/8-x-x-8-8-x-x--3-x-x-x-3-3-x-5/-8-8-|
E|-1-x-x-x---------5/6-x-x-6-6-x-x--1-x-x-x-------3/-6-6-|


Verse 2

Guitar I
e|-----------------------------------------------------------------|
B|-----------------------------------------------------------------|
G|---------------------------------3-3-3-3-3-3-3-3-3-3-3-3-3-3-3-3-|
D|-3-3-3-3-3-3-3-3-3-3-3-3-3-3-3-3-3-3-3-3-3-3-3-3-3-3-3-3-3-3-3-3-|
A|-3-3-3-3-3-3-3-3-3-3-3-3-3-3-3-3-1-1-1-1-1-1-1-1-1-1-1-1-1-1-1-1-|
E|-1-1-1-1-1-1-1-1-1-1-1-1-1-1-1-1---------------------------------|

e|-----------------------------------------------------------------|
B|-----------------------------------------------------------------|
G|-----------------------------------------------------------------|
D|---12-12---10-10--8-----12-12--10-10--8--------------------------|x2
A|---12-12---10-10--8-----12-12--10-10--8--------------------------|
E|---10-10----8--8--6-----10-10---8--8--6--------------------------|

Guitar II
e|-----------------------------------------------------------------|
B|-----------------------------------------------------------------|
G|--3---3---3---3---3---3---5/7/5--3---3---3---3---3---3---5/7/5---|
D|--3---3---3---3---3---3---5/7/5--3---3---3---3---3---3---5/7/5---|
A|--1---1---1---1---1---1---3/5/3--1---1---1---1---1---1---3/5/3---|
E|-----------------------------------------------------------------|

Pre - Chorus ( I'm the first to fall... last to know... where'd you go?? )
e|-----------------------------------------------------------------|
B|---------7-----------------7-------------------------------------|
G|------7----7---7-------7-----7---7-------------------------------|
D|----5--5----5--------5--5------5---------------------------------|
A|-----------------------------------------------------------------|
E|-----------------------------------------------------------------|

Chorus

( Guitars I or II )
e|-------------------------------------------------------|
B|-------------------------------------------------------|
G|----------5-5-x---------------------------5-5-x--------|
D|-3-x-x-x--5-5-x--7/8-x-x-8-8-x-x--3-x-x-x-5-5-x-5/-8-8-|
A|-3-x-x-x--3-3-x--7/8-x-x-8-8-x-x--3-x-x-x-3-3-x-5/-8-8-|
E|-1-x-x-x---------5/6-x-x-6-6-x-x--1-x-x-x-------3/-6-6-|

Guitar I ( chorus )
e|-------------------------------------------------------|
B|-------------------------------------------------------|
G|----------5-5-x---------------------------5-5-x--------|
D|-3-x-x-x--5-5-x--7/8-x-x-8-8-x-x--3-x-x-x-5-5-x-5/-8-8-|
A|-3-x-x-x--3-3-x--7/8-x-x-8-8-x-x--3-x-x-x-3-3-x-5/-8-8-|
E|-1-x-x-x---------5/6-x-x-6-6-x-x--1-x-x-x-------3/-6-6-|


Guitar II ( chorus )
e|-----------------------------------------------------------------|
B|---------7-----------------7-------------------------------------|
G|------7----7---7-------7-----7---7-------------------------------|
D|----5--5----5--------5--5------5---------------------------------|
A|-----------------------------------------------------------------|
E|-----------------------------------------------------------------|


Breakdown
e|--------------------------|
B|--------------------------|
G|--------------------------|
D|-5-5--5-5--5-5--5-7-------|x5
A|-5-5--5-5--5-5--5-7-------|
E|-3-3--3-3--3-3--3-5-------|

Reapeated Intro (Palm Mute)
e|-----------------------------------------------------------------|
B|-----------------------------------------------------------------|
G|---------------------------------3-3-3-3-3-3-3-3-3-3-3-3-3-3-3-3-|
D|-3-3-3-3-3-3-3-3-3-3-3-3-3-3-3-3-3-3-3-3-3-3-3-3-3-3-3-3-3-3-3-3-|
A|-3-3-3-3-3-3-3-3-3-3-3-3-3-3-3-3-1-1-1-1-1-1-1-1-1-1-1-1-1-1-1-1-|
E|-1-1-1-1-1-1-1-1-1-1-1-1-1-1-1-1---------------------------------|

Repeated Intro (continued)
e|-----------------------------------------------------------------|
B|-----------------------------------------------------------------|
G|-----------------------------------------------------------------|
D|---12-12---10-10--8-----12-12--10-10--8--------------------------|x2
A|---12-12---10-10--8-----12-12--10-10--8--------------------------|
E|---10-10----8--8--6-----10-10---8--8--6--------------------------|


 End Chorus  x2

( Guitars I or II )
e|-------------------------------------------------------|
B|-------------------------------------------------------|
G|----------5-5-x---------------------------5-5-x--------|
D|-3-x-x-x--5-5-x--7/8-x-x-8-8-x-x--3-x-x-x-5-5-x-5/-8-8-|
A|-3-x-x-x--3-3-x--7/8-x-x-8-8-x-x--3-x-x-x-3-3-x-5/-8-8-|
E|-1-x-x-x---------5/6-x-x-6-6-x-x--1-x-x-x-------3/-6-6-|

Guitar I ( chorus )
e|-------------------------------------------------------|
B|-------------------------------------------------------|
G|----------5-5-x---------------------------5-5-x--------|
D|-3-x-x-x--5-5-x--7/8-x-x-8-8-x-x--3-x-x-x-5-5-x-5/-8-8-|
A|-3-x-x-x--3-3-x--7/8-x-x-8-8-x-x--3-x-x-x-3-3-x-5/-8-8-|
E|-1-x-x-x---------5/6-x-x-6-6-x-x--1-x-x-x-------3/-6-6-|


Guitar II ( chorus )
e|-----------------------------------------------------------------|
B|---------7-----------------7-------------------------------------|
G|------7----7---7-------7-----7---7-------------------------------|
D|----5--5----5--------5--5------5---------------------------------|
A|-----------------------------------------------------------------|
E|-----------------------------------------------------------------|
            
Submit corrections

comments powered by Disqus
↑ Back to top | Boys Like Girls Tabs for Heels Over Head. Lyrics for acoustic guitar and electric guitar. 1 Tablatures and chords are parodies/interpretations of the original songs. You may use it for private study, scholarship, research or language learning purposes only