» » »

Boys Like Girls, On The Top Of The World Tabs (ver.2)

Artists:  A B C D E F G H I J K L M N O P Q R S T U V W X Y Z # 

On The Top Of The World Tabs (ver.2)

Boys Like Girls Tabs
 Rating:
4/5 (4 votes)
On The Top Of The World lessons Tabs too difficult? Try these video lessons and learn fast
1
                On top of the world by Boys like girls

Intro

Gtr1
E|-----------------------------------------------------|
B|-----------------------------------------------------|
G|---------------------------------777777777777777-----|
D|-777777777777777-999999999999999-777777777777777(x2)-|
A|-777777777777777-777777777777777-555555555555555-----|
e|-555555555555555-000000000000000---------------------|

Gtr2(when Gtr1 plays D)
E|-----------------------------------------------------------999-101010-|
B|----------------------------------101010-999-101010-121212------------|
G|----------------------------------------------------------------------|
D|----------------------------------------------------------------------|
A|----------------------------------------------------------------------|
e|----------------------------------------------------------------------|


E|-999--------------|
B|-----121212--10---|
G|------------------|
D|------------------|
A|------------------|
e|------------------|

Verse

The palm-strumming pattern is a bit hard to explain

E|-----------------|
B|-----------------|
G|-----------------|
D|--------7--------|
A|-7-7777-7-7-7777-|
e|-5-5555-5-5-5555-|
   * **** * * ****

E|-------|
B|-------| (same for E and D. i wont bother to tab it out)
G|----5--|
D|-9--5--|
A|-7--7--|
e|-0-----|

Pre-Chorus

   E               F#m

E|--------2---0------------2-0-------|
B|----0---------0------0-------0-----|
G|--1---1---1--------2---2-------2---|
D|---------------------------------4-|
A|-----------------4-----------------|
e|-0---------------------------------|

Chorus is same with intro


Gtr1
E|-----------------------------------------------------|
B|-----------------------------------------------------|
G|---------------------------------777777777777777-----|
D|-777777777777777-999999999999999-777777777777777(x2)-|
A|-777777777777777-777777777777777-555555555555555-----|
e|-555555555555555-000000000000000---------------------|

Gtr2(when Gtr1 plays D)
E|-----------------------------------------------------------999-101010-|
B|----------------------------------101010-999-101010-121212------------|
G|----------------------------------------------------------------------|
D|----------------------------------------------------------------------|
A|----------------------------------------------------------------------|
e|----------------------------------------------------------------------|


E|-999--------------|
B|-----121212--10---|
G|------------------|
D|------------------|
A|------------------|
e|------------------|


Verse (palm mute until..2nd part of chorus..play  open chords instead of power chords)

Chorus

Bridge

  F#m         E            D
E|-------------------------00000000000000000000-|
B|-------------------------33333333333333333333-|
G|-------------------------22222222222222222222-|
D|-4444444444--2222222222--00000000000000000000-| X2
A|-4444444444--2222222222-----------------------|
e|-2222222222--0000000000-----------------------|

Chorus
            
Submit corrections

comments powered by Disqus
↑ Back to top | Boys Like Girls Tabs for On The Top Of The World. Lyrics for acoustic guitar and electric guitar. 1 Tablatures and chords are parodies/interpretations of the original songs. You may use it for private study, scholarship, research or language learning purposes only