» » »

Heels Over Head Bass tabs (ver.1)

Artists:  A B C D E F G H I J K L M N O P Q R S T U V W X Y Z # 

Heels Over Head Bass tabs (ver.1)

Boys Like Girls
Rating:
0/5 (0 votes)

Hard to play? Try these video lessons and learn fast.
                Verse 
G|------------------------------------------------------|
D|------------------------------------------------------| 
A|------------------1111111111111111--------------------|
D|-1111111111111111------------------10-8-6---10-8-6----|

Bridge
G|-------------------------|
D|-------------------------|
A|-------------------------|
D|-1111111111111111--10-8-6|

Chorus
G|----------------------------------------------------------|
D|----------------------------------------------------------|
A|---3-3----------------6-6-----------------6-6---------3---|
D|3----------3-3----3----------33----3------------3------6-6|

Verse (repeat twice)
G|------------------------------------------------------|
D|------------------------------------------------------| 
A|------------------1111111111111111--------------------|
D|-1111111111111111------------------10-8-6---10-8-6----|

Bridge
G|-------------------------|
D|-------------------------|
A|-------------------------|
D|-1111111111111111--10-8-6|

Chorus (repeat twice)
G|-----------------------------------------------------------|
D|-----------------------------------------------------------|
A|----3-3----------------6-6-----------------6-6---------3---|
D|-3----------3-3----3----------33----3------------3------6-6|

Bridge
G|-------|
D|-------|
A|-------|
D|-10-10\|

Interlude (repeat four times)
G| ------------------|
D| ------------------|
A| ------------------|
D| 10/--1-1--1-1-10\6|

G|----------|
D|----------|
A|----------|
D|-10\4-5-6-|

Chorus (repeat until end)
G|------------------------------------------------------------|
D|------------------------------------------------------------|
A|----3-3----------------6-6-----------------6-6---------3----|
D|-3----------3-3----3----------33----3------------3------6-6-|

End with
G|--------|
D|--------|
A|--------|
D|-4-5-6--|

Shavo :)
            
Hard to play? Try these video lessons and learn fast. | Correct




comments powered by Disqus
↑ Back to top | Tablatures and chords are parodies/interpretations of the original songs. You may use it for private study, scholarship, research or language learning purposes only