» » »

Boys Like Girls, Dance Hall Drug Bass tabs (ver.1)

Artists:  A B C D E F G H I J K L M N O P Q R S T U V W X Y Z # 

Dance Hall Drug Bass tabs (ver.1)

Boys Like Girls Tabs
Rating:
5/5 (1 vote)
Dance Hall Drug lessons Tabs too difficult? Try these video lessons and learn fast
                -------------------------------------------------------------------------------
-------------------------------------------------------------------------------

Alright, my first tab. Hope you like it. Don't go so hard on me. 


Tuning: Standard (EADG)



INTRO 0:05

G|---------------------------------------------------------------------------|
D|-------------0h2-0h2--------------0h2-0h2-0--------------------------------|
A|---------------------------------------------------------------------------|
E|-0-0-0-0-0-0---------0-0-0-0-0-0-------------------------------------------|

VERSE 1 0:12

G|---------------------------------------------------------------------------|
D|--------------------------------------------0h2-0h2------------0h2-0h2-0---|
A|-2-2-2-4-5-4-2-0--2-2-2-4-5-4-2-0------------------------------------------|
E|---------------------------------0-0-0-0-0-0-------0-0-0-0-0-0-------------|

G|---------------------------------------------------------------------------|
D|--------------------------------------------0h2-0h2------------0h2-0h2-0---|
A|-2-2-2-4-5-4-2-0--2-2-2-4-5-4-2-0------------------------------------------|
E|---------------------------------0-0-0-0-0-0-------0-0-0-0-0-0-------------|

PRE-CHORUS 0:36

G|---------------------------------------------------------------------------|
D|---------------------------------------------------------------------------|
A|--------------------------------------0--0--0--0---------------------------|
E|--3--3--3--3--0--0--0--0--3--3--3--3---------------------------------------|

CHORUS 0:48

G|---------------------------------------------------------------------------|
D|---------------------------------------------------------------------------|
A|-5-5-5-5-5-5-5-5-2-2-2-2-2-2/14-14-----------------0-0-0-0-0-0-0-0---------|
E|-----------------------------------3-3-3-3-3-3-3-3-------------------------|

G|---------------------------------------------------------------------------|
D|---------------------------------------------------------------------------|
A|-5-5-5-5-5-5-5-5-2-2-2-2-2-2/14-14-----------------0-0-0-0-0-0-0-0---------|
E|-----------------------------------3-3-3-3-3-3-3-3-------------------------|

VERSE 2 1:15

G|---------------------------------------------------------------------------|
D|--------------------------------------------0h2-0h2------------0h2-0h2-0---|
A|-2-2-2-4-5-4-2-0--2-2-2-4-5-4-2-0------------------------------------------|
E|---------------------------------0-0-0-0-0-0-------0-0-0-0-0-0-------------|

G|---------------------------------------------------------------------------|
D|--------------------------------------------0h2-0h2------------0h2-0h2-0---|
A|-2-2-2-4-5-4-2-0--2-2-2-4-5-4-2-0------------------------------------------|
E|---------------------------------0-0-0-0-0-0-------0-0-0-0-0-0-------------|

PRE-CHORUS 1:38

G|---------------------------------------------------------------------------|
D|---------------------------------------------------------------------------|
A|--------------------------------------0--0--0--0---------------------------|
E|--3--3--3--3--0--0--0--0--3--3--3--3---------------------------------------|

CHORUS 1:51

G|---------------------------------------------------------------------------|
D|---------------------------------------------------------------------------|
A|-5-5-5-5-5-5-5-5-2-2-2-2-2-2/14-14-----------------0-0-0-0-0-0-0-0---------|
E|-----------------------------------3-3-3-3-3-3-3-3-------------------------|

G|---------------------------------------------------------------------------|
D|---------------------------------------------------------------------------|
A|-5-5-5-5-5-5-5-5-2-2-2-2-2-2/14-14-----------------0-0-0-0-0-0-0-0---------|
E|-----------------------------------3-3-3-3-3-3-3-3-------------------------|

BRIDGE 2:15

G|---------------------------------------------------------------------------|
D|---------------------------------------------------------------------------|
A|5--5--5--5-----------5--5--5--5--------------------------------------------|
E|----------3--3--3--3-----------3--3--3--3----------------------------------|

G|---------------------------------------------------------------------------|
D|---------------------------------------------------------------------------|
A|---------------------------------------------------------------------------|
E|--0--0--0--0--3--3--3--3--0--0--0--0---------------------------------------|

CHORUS 2:51

G|---------------------------------------------------------------------------|
D|---------------------------------------------------------------------------|
A|-5-5-5-5-5-5-5-5-2-2-2-2-2-2/14-14-----------------0-0-0-0-0-0-0-0---------|
E|-----------------------------------3-3-3-3-3-3-3-3-------------------------|

G|---------------------------------------------------------------------------|
D|---------------------------------------------------------------------------|
A|-5-5-5-5-5-5-5-5-2-2-2-2-2-2/14-14-----------------0-0-0-0-0-0-0-0---------|
E|-----------------------------------3-3-3-3-3-3-3-3-------------------------|

G|---------------------------------------------------------------------------|
D|---------------------------------------------------------------------------|
A|-5-5-5-5-5-5-5-5-2-2-2-2-2-2/14-14-----------------0-0-0-0-0-0-0-0---------|
E|-----------------------------------3-3-3-3-3-3-3-3-------------------------|

End:

G|-------------------------------|
D|-------------------------------|
A|--2-2--------------------------|
E|-------------------------------|


| /  slide up
| \  slide down
| h  hammer-on
| p  pull-off
| ~  vibrato
| +  harmonic
| x  Mute note
===============================================================================
            
Submit corrections

comments powered by Disqus
↑ Back to top | Boys Like Girls Bass for Dance Hall Drug. Lyrics for acoustic guitar and electric guitar. Tablatures and chords are parodies/interpretations of the original songs. You may use it for private study, scholarship, research or language learning purposes only