>
 >
Dance Hall Drug 1

Dance Hall Drug 1 Guitar Tabs

Boys Like Girls - Dance Hall Drug 1 chords, tabs, tablatures, lyrics

Guitar lessons | Add/correct | Request | Top 50 tabs Artists:  A B C D E F G H I J K L M N O P Q R S T U V W X Y Z 0-9

Dance Hall Drug 1 Guitar Tabs – Boys Like Girls

CD, Sheet music, Poster

Do you like Dance Hall Drug 1? Share with your friends now
Bass TabsChordsChords v2TabsTabs v2Tabs v3Ukulele
-----------------------------------------------------------------------------
              Dance Hall Drug -Boys Like Girls
-----------------------------------------------------------------------------


This song is in open D tuning,
D-A-D-F#-A-D
I tabbed out the lead! :)


Tablature Legend:
~~ = let ring

               (RIFF ONE)
D---0-0-0-0-0-0--0-0-0-0-0-0-0-0-0-0--0-0-0-0----------------------|
A---0-0-0-0-0-0--0-0-0-0-0-0-0-0-0-0--0-0-0-0----------------------|
F#--0-0-0-0-0-0--0-0-0-0-0-0-0-0-0-0--0-0-0-0----------------------|
D---9-9-9-9-9-9--9-7-9-7-9-9-9-9-9-9--9-7-9-7----------------------|
A---9-9-9-9-9-9--9-7-9-7-9-9-9-9-9-9--9-7-9-7----------------------|
D---9-9-9-9-9-9--9-7-9-7-9-9-9-9-9-9--9-7-9-7----------------------|

                (RIFF TWO)
D---0-0-0-0-0-0--0-0-0-0-0-0-0-0-0-0-0-0-0-0-0-------------------|
A---0-0-0-0-0-0--0-0-0-0-0-0-0-0-0-0-0-0-0-0-0-------------------|
F#--0-0-0-0-0-0--0-0-0-0-0-0-0-0-0-0-0-0-0-0-0-------------------|
D---2-2-2-2-2-2--2-0-2-0-2-2-2-2-2-2-0-2-0-2-0-------------------|
A---2-2-2-2-2-2--2-0-2-0-2-2-2-2-2-2-0-2-0-2-0-------------------|
D---2-2-2-2-2-2--2-0-2-0-2-2-2-2-2-2-0-2-0-2-0-------------------|

This lead riff (LEAD ONE) is played with RIFF TWO when it's first 
heard in the song, at 0:06. It's always played with that riff.
D-------2-----2------2------2---2------2--------|
A-----2------2----2-2-----2----2---2-2----------|
F#--2-------2-----------2-----2-----------------|
D-----------------------------------------------|
A-----------------------------------------------|
D-----------------------------------------------|


LEAD TWO- always play with RIFF ONE.
D-------7----7------7------7---7-----7----------|
A-----5-----5----5-5-----5----5---5-5-----------|
F#--5------5-----------5-----5------------------|
D-----------------------------------------------|
A-----------------------------------------------|
D-----------------------------------------------|

Pre-chorus:
D-------0~~0-------------0~~0-----0-0-----------
A-------0~~0-------------0~~0-----0-0-----------
F#------0~~0-------------0~~0-----0-0-----------
D---5-5-5~~5-5-5-4-4-2-2-2~~2-2-2-2-2-----------
A---5-5-5~~5-5-5-4-4-2-2-2~~2-2-2-2-2-----------
D---5-5-5~~5-5-5-4-4-2-2-2~~2-2-2-2-2-----------

--------0~~0-------------0-0-0--XXXXXX----------|
--------0~~0-------------0-0-0--XXXXXX----------|
--------0~~0-------------0-0-0--XXXXXX----------|
----5-5-5~~5-5-5-4-4-7-7-7-7-7--XXXXXX----------|
----5-5-5~~5-5-5-4-4-7-7-7-7-7--XXXXXX----------|
----5-5-5~~5-5-5-4-4-7-7-7-7-7--XXXXXX----------|

Chorus:
D---0-0-0-0-0-0-0-0-0-0-0-0-0-0-0-0--------------
A---0-0-0-0-0-0-0-0-0-0-0-0-0-0-0-0--------------
F#--0-0-0-0-0-0-0-0-0-0-0-0-0-0-0-0--------------
D---0-0-0-0-0-0-0-0-9-9-9-9-9-9-9-9--------------
A---0-0-0-0-0-0-0-0-9-9-9-9-9-9-9-9--------------
D---0-0-0-0-0-0-0-0-9-9-9-9-9-9-9-9--------------

----0-0-0-0-0-0-0-0-0-0-0-0-0-0-0-0-XXXXXX-------|
----0-0-0-0-0-0-0-0-0-0-0-0-0-0-0-0-XXXXXX-------|
----0-0-0-0-0-0-0-0-0-0-0-0-0-0-0-0-XXXXXX-------|
----5-5-5-5-5-5-5-5-7-7-7-7-7-7-7-7-XXXXXX-------|
----5-5-5-5-5-5-5-5-7-7-7-7-7-7-7-7-XXXXXX-------|
----5-5-5-5-5-5-5-5-7-7-7-7-7-7-7-7-XXXXXX-------|

*Chorus Variation: When playing the chorus that goes into the 
bridge, slide from the last chord on the seventh fret up
to the 8th, then the 9th.

Bridge:
D-------0~~~~~~~~~----0~~~~~~~~~~------------|
A-------0~~~~~~~~~----0~~~~~~~~~~------------|
F#------0~~~~~~~~~----0~~~~~~~~~~---(twice)--|
D---0-0-0~~~~~~~~~5-5-5~~~~~~~~~~------------|
A---0-0-0~~~~~~~~~5-5-5~~~~~~~~~~------------|
D---0-0-0~~~~~~~~~5-5-5~~~~~~~~~~------------|

Song Structure:
Intro- RIFF ONE once without lead, RIFF TWO with lead (LEAD ONE)
Verse- RIFF ONE and RIFF TWO, both with lead and singing.
Pre-chorus
Chorus (twice)
Verse 2-same as verse one
Pre-chorus
Chorus (with variation)
Bridge
Pre-Chorus
Chorus variation 2: play RIFF ONE and TWO, no lead.
Chorus, repeat, end on:

    
D---0-0-------------|
A---0-0-------------|
F#--0-0-------------|
D---9-9/------------|
A---9-9/------------|
D---9-9/------------|

Lyrics:

Grown up
She just turned 16
Stuck in the moment
Dead at the scene
And it's on tonight
This is the life that you wanted, right?
So turn off all the lights
Dressed up just like a movie star
At all the parties they'll know who you are
Wouldn't it be great, to be fashionably late?
So why don't you wait, till you're sedated

Pre-chorus:
Don't it feel like something's not right in his kiss tonight?

Chorus:
Yeah what I'm saying is do you, do you want to lose it all?
Cause this is more than just a dance hall drug
You can't wait to fall in love
All I'm saying is do you, do you want to learn to fly?
Then you should pack it up and say goodbye
Cause when the push comes to the shove
It's just a dance hall drug

Step in and you can lock the door
The candles are lit and the clothes on the floor
You could take a chance on finding romance
Now you're holding hands
But he's got other plans
Tick-tock, the clock is turning red
The room won't stop spinning and thoughts in your head
And it's too late
You feel like you're making a big mistake
You should've waited

(Pre-chorus)

(Chorus)

Bridge:
Just wait love
Show 'em what you're made of

Don't it feel like something's not right in his kiss tonight?

(Repeat chorus until end)





Comments


Popular Boys Like Girls tabs & chords
Five Minutes To Midnight 2 Bass Tabs
Thunder 2 Bass Tabs
Broken Man Chords
Go 1 Chords
Great Escape 8 Chords
Heroheroine 4 Chords
Heroheroine 5 Chords
Heels Over Head 1 Tabs
Two Is Better Than One 4 Tabs
On The Top Of The World Ukulele


Song lyrics



↑ Back to top | Tablatures and chords are parodies/interpretations of the original songs. You may use it for private study, scholarship, research or language learning purposes only
© 2014 AZChords.com Contact us | Privacy policy | DMCA | Add/correct tabs | Request tabs | Top 50 tabs