» » »

On My Way Tabs (ver.1)

Artists:  A B C D E F G H I J K L M N O P Q R S T U V W X Y Z # 

On My Way Tabs (ver.1)

Boyce Avenue
Rating:
0/5 (0 votes)

Hard to play? Try these video lessons and learn fast.
                Boyce Avenue – On My Way


Acoustic Guitar

Key of D

Tuning: D A D A D A(D)

Tune high E string to D. I used a 12 string guitar high G(.008) to pull of the high A note.

Verse:(play 2x)
-0----0----0----0--0-|
-0----2----0----0--0-|
-0----0----0----0--0-| (raked)
-0----0----0----4--2-|
-0----0----5----2--0-|
-0----0----5---------|

Chorus:
-0----0----0----0---0-|
-0----0----0----2---0-|
-0----0----0----0---0-|
-9----4----4----2---2-|
-10---5----2----0---0-|
-0----0---------------|

-0----0----0----0---0-0------0-0-0-0-0-|
-0----0----0----2---0-0------0-0-0-0-0-|
-0----0----0----0---0-0------0-0-0-0-0-|
-9----4----4----2---2-0------4-4-2-2-0-|
-10---5----2----0---0-5------2-2-0-0-5-|
-0----0---------------5--------------5-|

Outro:
-0----0----0----0---0-0----0---0-0----0-0-|
-0----0----0----2---0-0----0---0-0----2-0-|
-0----0----0----0---0-0----0---0-0----0-0-|
-0----0----4----2---2-0----0---2-4----2-2-|
-5----0----2----0---0-5----0---4-2----0-0-|
-5----0---------------5----0--------------|

-0----0----0----0---0-0----0---0-0----0-0-|
-0----0----0----2---0-0----0---0-0----2-0-|
-0----0----0----0---0-0----0---0-0----0-0-|
-0----0----4----2---2-0----0---2-4----2-2-|
-5----0----2----0---0-5----0---4-2----0-0-|
-5----0---------------5----0--------------|

-0------0-0-0-0-0-|
-0------0-0-0-0-0-|
-0------0-0-0-0-0-|
-0------4-4-2-2-0-|
-5------2-2-0-0-5-|
-5--------------5-|

Jam/Solo:
-0----0----0----0---0-0----0---0-0----0-0-|
-0----0----0----2---0-0----0---0-0----2-0-|
-0----0----0----0---0-0----0---0-0----0-0-|
-0----0----4----2---2-0----0---2-4----2-2-|
-5----0----2----0---0-5----0---4-2----0-0-|
-5----0---------------5----0--------------|

-0------0-0-0-0-0-0-|
-0------0-0-0-0-0-0-|
-0------0-0-0-0-0-0-|
-0------4-4-2-2-0-0-|
-5------2-2-0-0-0-0-|
-5--------------0-0-|
            
Hard to play? Try these video lessons and learn fast. | Correct




comments powered by Disqus
↑ Back to top | Tablatures and chords are parodies/interpretations of the original songs. You may use it for private study, scholarship, research or language learning purposes only