» » »

Boyce Avenue, Titanium Tabs (ver.1)

Artists:  A B C D E F G H I J K L M N O P Q R S T U V W X Y Z # 

Titanium Tabs (ver.1)

Boyce Avenue Tabs
 Rating:
4/5 (4 votes)
Titanium lessons Tabs too difficult? Try these video lessons and learn fast
                
This is my first tab so please give me feedback and comment/message for any 
suggestions or mistakes... Enjoy!

Tuning: Standard

Intro:

Slightly Palm Muted
E|------------------------------------------------------------------------------|
B|------------------------------------------------------------------------------|
G|-------2---4---2----------0---2---0---------2---4---2--5----4---2---4---0-----|
D|-----0---0---0---0------0---0---0---0-----0---0---0-----------0---0---0-------|
A|------------------------------------------------------------------------------|
E|---3-----------------2-----------------0----------------0---------------------|

Verse (x4):

Slightly Palm Muted
E|------------------------------------------------------------------------------|
B|------------------------------------------------------------------------------|
G|-------2---4---2----------0---2---0---------2---4---2--5----4---2---4---0-----|
D|-----0---0---0---0------0---0---0---0-----0---0---0-----------0---0---0-------|
A|------------------------------------------------------------------------------|
E|---3-----------------2-----------------0----------------0---------------------|


Chorus (x4):

Slightly Palm Muted
  
       C          D          Bm           Em
E|-----x----------x----------x------------x-------------------------------|
B|-----x----------x----------x------------x-------------------------------|
G|-----x----------7----------4------------9-------------------------------|
D|-----10---------7----------4------------9-------------------------------|
A|-----10---------5----------2------------7-------------------------------|
E|-----8----------x----------x------------x-------------------------------|

Then (x2): 

Strummed

       C          D          Bm           Em
E|-----0----------0----------0------------0-------------------------------|
B|-----0----------3----------0------------0-------------------------------|
G|-----0----------2----------4------------0-------------------------------|
D|-----2----------0----------4------------2-------------------------------|
A|-----3----------x----------2------------2-------------------------------|
E|-----x----------x----------x------------0-------------------------------|


Bridge (x2):

Single Strummed

       C          D          Bm           Em
E|-----0----------0----------0------------0-------------------------------|
B|-----0----------3----------0------------0-------------------------------|
G|-----0----------2----------4------------0-------------------------------|
D|-----2----------0----------4------------2-------------------------------|
A|-----3----------x----------2------------2-------------------------------|
E|-----x----------x----------x------------0-------------------------------|



Song Order:
Intro
Verse
Chorus
Verse
Chorus
Bridge
Chorus
            
Submit corrections

comments powered by Disqus
↑ Back to top | Boyce Avenue Tabs for Titanium. Lyrics for acoustic guitar and electric guitar. Tablatures and chords are parodies/interpretations of the original songs. You may use it for private study, scholarship, research or language learning purposes only