» » »

Bottle Rockets, Radar Gun Tabs (ver.2)

Artists:  A B C D E F G H I J K L M N O P Q R S T U V W X Y Z # 

Radar Gun Tabs (ver.2)

Bottle Rockets Tabs
 Rating:
4.2/5 (5 votes)
Radar Gun lessons Tabs too difficult? Try these video lessons and learn fast
                #
Radar Gun by
the Bottle Rockets

I haven't got the main solo tabbed out yet, but here's what I've got so far...
I just heard the song a couple of times on the radio...

                  Muted notes (also played throughout verses)
E---||----------------------------------------------------||--|-----------------|
B---||----------------------------------------------------||--|-----------------|
G---||*--------------------------------------------------*||--|-----------------|
D---||*--2-----4-----------------------------------------*||--|-----------------|
A---||---2-----4------------------------------------------||--|-----------------|
E---||---0-----2--2--2--2--2--2--2--2--2--2--2--2--2--2---||--|-----------------|


    Radar Gun      Radar Gun         I'm making money and I'm havin' fun
E-------------------------------------------------------------------------------|
B-------------------------------------------------------------------------------|
G---4--2-----------4--2---------------------------------------------------------|
D---4--2--4--------4--2--4------------------------------------------------------|
A---2--0--4--------2--0--4------------------------------------------------------|
E---------2--------------2--2--2--2--2--2--2--2--2--2--2--2--2--2--2--2--2------|


    with my...
E---------|---------------------------------------------------------------------|
B---------|---------------------------------------------------------------------|
G---------|---------------------------------------------------------------------|
D---------|---------------------------------------------------------------------|
A---------|---------------------------------------------------------------------|
E---2--2--|---------------------------------------------------------------------|


    Little solo riff played after 1st chorus
E-------------------------------------------------------------------------------|
B-----------7----------------7--------------------------------------------------|
G------4/6--------------4/6-----6--4--------------------------------------------|
D-------------------------------------7--4--------7-----4-----4--7--4-----------|
A-------------------------------------------7--4-----------7--------------------|
E----------------------------------------------------------------------5--2-----|

E------------|------------------------------------------------------------------|
B------------|------------------------------------------------------------------|
G------------|------------------------------------------------------------------|
D------------|------------------------------------------------------------------|
A------------|------------------------------------------------------------------|
E---5-----2--|------------------------------------------------------------------|

That's it!
            
Submit corrections

comments powered by Disqus
↑ Back to top | Bottle Rockets Tabs for Radar Gun. Lyrics for acoustic guitar and electric guitar. Tablatures and chords are parodies/interpretations of the original songs. You may use it for private study, scholarship, research or language learning purposes only