» » »

Radar Gun Tabs (ver.1)

Artists:  A B C D E F G H I J K L M N O P Q R S T U V W X Y Z # 

Radar Gun Tabs (ver.1)

Bottle Rockets
Rating:
0/5 (0 votes)

Hard to play? Try these video lessons and learn fast.
                BOTTLE ROCKETS-
RADAR GUN



Intro
E------------------------------------------------------------------------------|
B------------------------------------------------------------------------------|
G------------------------------------------------------------------------------|
D--2----4-4-4-4-4-4-4-4--------------------------------------------------------|
A--2----4-4-4-4-4-4-4-4--------------------------------------------------------|
E--0----2-2-2-2-2-2-2-2--------------------------------------------------------|x4
	p.m.............

Verse
E----------------------------|
B----------------------------|
G----------------------2-2---|
D--4-------------------2-2---|
A--4-------------------0-0---|
E--2--2-2-2-2-2-2-2----------|
      p.m..........

Chorus
E-----------------------------------------|
B-----------------------------------------|
G--4-2-------4-2--------------------------|
D--4-2--4----4-2--4-4---------------------|
A--2-0--4----2-0--4-4---------------------|
E-------2---------2-2-2-2-2-2-2-2-2-2-2-2-|
		  p.m.....................


Fill
E------------------------------------------------------------|
B------7-------7---------------------------------------------|
G--4/6-----4/6----6/4----------------------------------------|
D----------------------7--4-----4------2h4--2--------------2-|
A----------------------------7----7--4---------------------2-|
E----------------------------------------------5--2--5--2--0-|


Solo
E------------------------------------------------------------------------------|
B------7-----------------------------------------------------------------------|
G--4/6----6--6p4----4-4b6-4----------------------------------------------------|
D----------------7-----------7--4-----4----------------------------------------|
A----------------------------------7-----7--4--2-------------------------------|
E-------------------------------------------------5--2----5--2--5--2-----------|

E-------------------------------------------------------------------------------------|
B------------7-----7----------------7----7--7--5------------------------------------7-|
G--4b6-2-4s6----6------4b6--2--4s6-----6---------6--6p4s2--------4b--2------2--4s6----|
D---------------------------------------------------------4--2--------4--4------------|
A-------------------------------------------------------------------------------------|
E-------------------------------------------------------------------------------------|

E-----------------------------------------------------------------------------------------|
B---7---7---7---7---7---7------------------------------------5---5---7---7---5------------|
G-6---6---6---6---6---6----6--6p4s2---4b6--2----------2--4s6---6---6---6---6---6-4-2------|
D-----------------------------------4--------4--2--4---------------------------------4--2-|
A-----------------------------------------------------------------------------------------|
E-----------------------------------------------------------------------------------------|

E------------------------------------------------------------------------------|
B------------------------------------------------------------------------------|
G------------------------------------------------------------------------------|
D------------------------------------------------------------------------------|
A------------------------------------------------------------------------------|
E---5--5--2--------------------------------------------------------------------|
            
Hard to play? Try these video lessons and learn fast. | Correct




comments powered by Disqus
↑ Back to top | Tablatures and chords are parodies/interpretations of the original songs. You may use it for private study, scholarship, research or language learning purposes only