>
 >
Who Says You Cant Go Home 4

Who Says You Cant Go Home 4 Guitar Tabs

Bon Jovi - Who Says You Cant Go Home 4 chords, tabs, tablatures, lyrics

Guitar lessons | Add/correct | Request | Top 50 tabs Artists:  A B C D E F G H I J K L M N O P Q R S T U V W X Y Z 0-9

Who Says You Cant Go Home 4 Guitar Tabs – Bon Jovi

CD, Sheet music, Poster

Do you like Who Says You Cant Go Home 4? Share with your friends now
ChordsChords v2Chords v3TabsTabs v2Tabs v3Tabs v4
I all ready have the intro tabed out so check it out out, its correct.

The cords used in this song are G5, Cadd9, A7sus4, D, Dsus4 and Bm.
 
Here 's the solo. 

   G5                   Cadd9                          A7sus4
E|---------------------|--------------------------------|---------
B|--12/13-13-13-13--12-/-13----12-----------------------|---------
G|--12/12-12-12-12--12-/-12----12------14-12---------12-/12-------
D|--12/14-14-14-14--12-/-14----12------12-12---------12-/14-------
A|---------------------|--------------------------------|---------
E|---------------------|--------------------------------|---------
                         Cadd9                
 |----------------------|---------------------------|
 |-12/13-13-13-13----12-/13---12-----------12-------|
 |-12/12-12-12-12----12-/12---12-------14------14---|
 |-12/14-14-14-14----12-/14---12-------12------12---|
 |----------------------|---------------------------|
 |----------------------|---------------------------|
  G5                           Cadd9                           
 |----------------------------|--------------------------------|-
 |--12--12--10--10--8--8--13--|-13--12--12--10--10--12--10--8--|-
 |---0---0---0---0--0--0---0--|--0---0---0---0---0---0---0--0--|-
 |----------------------------|--------------------------------|-
 |----------------------------|--------------------------------|-
 |----------------------------|--------------------------------|-

 A7sus4                              D
 -----------------------------------|-------------------------------|
 -------------------12------10------|-8-----7-------5------3--------|
 -9---------------------------------|-------------------------------|
 ----------10/12---------10-------9-|-----7-----5-------4-------2---|
 -----------------------------------|-------------------------------|
 -----------------------------------|-------------------------------|





Comments


Popular Bon Jovi tabs & chords
Ill Be There For You 2 Chords
Taking It Back Chords
Wanted Dead Or Alive Chords
We Werent Born To Follow Chords
Whole Lot A Leavin Chords
Blaze Of GloryIntro Tabs
Garageland Tabs
Livin On A Prayer 5 Tabs
Runaway 2 Tabs
Say It Isn't So Tabs


Song lyrics



↑ Back to top | Tablatures and chords are parodies/interpretations of the original songs. You may use it for private study, scholarship, research or language learning purposes only
© 2014 AZChords.com Contact us | Privacy policy | DMCA | Add/correct tabs | Request tabs | Top 50 tabs