» » »

Bon Jovi, Who Says You Cant Go Home Tabs (ver.3)

Artists:  A B C D E F G H I J K L M N O P Q R S T U V W X Y Z # 

Who Says You Cant Go Home Tabs (ver.3)

Bon Jovi Tabs
 Rating:
4/5 (4 votes)
Who Says You Cant Go Home lessons Tabs too difficult? Try these video lessons and learn fast
1
                this is the country version of the song

intro
e------3-0-----|------3-0--------------------|
B-0-1-3-3-3-1-3|-0-1-3-3-3-1-0---------------|
G--------------|-------------- x2------------|           you gatta time it right
D--------------|-----------------------------|
A--------------|-----------------------------|
E--------------|-----------------------------|

the next part is the verse the time order is down-down-...up-down-up do that with the 
then swich to the next

Verse 1
G5      Cadd9     Cadd9(pick up A)  Cadd9    G5    Cadd9   Cadd9?? D
e-3-----3---------3-----------------3--------3-----3-------3-------3---|
B-3-----3---------3-----------------3--------3-----3-------3-------2---|
G-0-----0---------0-----------------0--------0-----0-------0-------3---|  x2
D-0-----2---------2-----------------2--------0-----2-------2-------0---|
A-2-----3---------0-----------------3--------2-----3-------0-------0---|
E-3-----x---------x-----------------x--------3-----x-------x-------x---|

Verse 2

  Em    G5  G5  Cadd9  B    Cadd9  D
e-0-----3---3---3------3----3------3-|
B-0-----3---3---3------4----3------2-|
G-0-----0---0---0------4----0------3-|
D-2-----0---0---2------2----2------0-|
A-2-----2---2---3------2----3------0-|
E-0-----3---3---x------x----x------x-|


then back to verse 1 for another time

verse 1 is also the chorus so use that every time they play the chorus

when the start "its alright,alright,alright"-play the intro
but when they say u cant go home play the D

at the almost end of the song when there playing one chord at a time switch untill they 
"Who Says You Cant Go Home" play the D ( Down down up-down-up)

I dont know the Solo thought SORRY!
            
Submit corrections

comments powered by Disqus
↑ Back to top | Bon Jovi Tabs for Who Says You Cant Go Home. Lyrics for acoustic guitar and electric guitar. 1 Tablatures and chords are parodies/interpretations of the original songs. You may use it for private study, scholarship, research or language learning purposes only