» » »

Bon Jovi, Whole Lot Of Leaving Tabs (ver.1)

Artists:  A B C D E F G H I J K L M N O P Q R S T U V W X Y Z # 

Whole Lot Of Leaving Tabs (ver.1)

Bon Jovi Tabs
Rating:
0/5 (0 votes)
Whole Lot Of Leaving lessons Tabs too difficult? Try these video lessons and learn fast
                This song has two main guitars, actually 3 if you don't count Jon. Jon just strums. 
(live) plays his with the D string tuned up 2 semitones and capo on 2nd fret, Jon also uses 
2nd fret, but standard. Richie has is standard, no capo.

Intro - Bobby (capo 2nd fret, d string tune up to E)

-----0---------------------------------|
-------0------0------0-----------------|
------------------2--------------------|
-0-0------0h4---0----------------------|
---------------------------------------|
---------------------------------------|

That part seems confusing, but it just takes practice and timing.

Solo - Mr. Sambora

------------------------------------------11-----------11---11--------------|
-------------------------------------14b-----14-11---11--14b---14-11--------|
--------------------------------6b-----------------13----------------13b-11-|
--6b-(hit around 9 times)-4---4---------------------------------------------|
----------------------------6-----------------------------------------------|
----------------------------------------------------------------------------|

------------------------------------------------------------|
------------------------------------------------------------|
-/14-/14-/14-/14-/14-/14------------------------------------|
-/15-/15-/15-/15-/15-/15--13h15-11--------------------------|
------------------------------------------------------------|
------------------------------------------------------------|


Again, I am happy ot help you guys. The Lost Highway album hasn't really been tabbed 
so I am going to tab that out. Next is Lost Highway, Any Other Day, I Love This Town. Enjoy this!!
            
Submit corrections

comments powered by Disqus
↑ Back to top | Bon Jovi Tabs for Whole Lot Of Leaving. Lyrics for acoustic guitar and electric guitar. Tablatures and chords are parodies/interpretations of the original songs. You may use it for private study, scholarship, research or language learning purposes only