» » »

Bon Jovi, When We Were Beautiful Bass tabs (ver.1)

Artists:  A B C D E F G H I J K L M N O P Q R S T U V W X Y Z # 

When We Were Beautiful Bass tabs (ver.1)

Bon Jovi Tabs
 Rating:
4/5 (4 votes)
When We Were Beautiful lessons Tabs too difficult? Try these video lessons and learn fast
                When We Were Beautiful for Bass
Bon Jovi - The Circle
Drop D Tuning: D A D G

this is my first tab, so please rate, but not too harshly (thats seems like what everyone says)
this song is amazing, i can't wait for the album to come out
anyway, i hope this tab helps

Verse 1 (you know where the bass comes in) 	Chorus (each pair on drums)
---------------------------------------------------------------------------------------|
---------------------------------------------------------------------------------------|
------00----------------00-----------------------00------------00-----00-----------00--|
--------------25---------------------------------------22---00--------------22---55----|

Shalala (x16 per note)	      		Verse 2 (x16 per note)
-------------------------------------------------------------------------------------|
-------------------------------------------------------------------------------------|
----0----------5------0--------------0---------------0-------0----------5-----0------|
----------5---------------------------------5-----0----------------5-----------------|

Chorus (x16 per note)
----------------------------------------------------------------------------|
----------------------------------------------------------------------------|
------------0----------------0----0--------------0--------------------------|
-----------------2-----0---------------2----5-------------------------------|

Solo (x8 per note)
------------------------------------------------------------------------------------------------|
------------------------------------------------------------------------------------------------|
-----------------5----0-----0----------5----0----0----------5----0-----0------------------0--0--|
------------5----------------------5--------------------5-----------------------2---5-----------|

Bridge (here just do what it says, no x16)
---------9\0-----9\-----11\2--|
---------------------0--------|
--0---------------------------|
------------------------------|

Chorus (x16 per note again)
-------------------------------------------------------------------------------------------|
-------------------------------------------------------------------------------------------|
---------0----------0------0--------0-----0------------0----0------5--0-------0------5---0-|
------------2---0-------------2--5------------2---5-------------5------------------5-------|

Ending bass doesn't play
            
Submit corrections

comments powered by Disqus
↑ Back to top | Bon Jovi Bass for When We Were Beautiful. Lyrics for acoustic guitar and electric guitar. Tablatures and chords are parodies/interpretations of the original songs. You may use it for private study, scholarship, research or language learning purposes only