» » »

Bon Jovi, When We Were Beautiful Tabs (ver.1)

Artists:  A B C D E F G H I J K L M N O P Q R S T U V W X Y Z # 

When We Were Beautiful Tabs (ver.1)

Bon Jovi Tabs
Rating:
0/5 (0 votes)
When We Were Beautiful lessons Tabs too difficult? Try these video lessons and learn fast
                -------------------------------------------------------------------------------
-------------------------------------------------------------------------------

Tuning:Standard

Great song and i believe im the first to tab it all...enjoy


Intro and Verse

e|----------7---------7----------7-------------------------------------------|
B|--------------10-------10------------10------keep doing that---------------|
G|---------------------------------------------------------------------------|
D|---------------------------------------------------------------------------|
A|----0----------------------------------------------------------------------|
E|---------------------------------------------------------------------------|

1st chorus keep playing this kind of chord till the next verse (if you want 
you can also play it in the verse)

e|---------------------------------------------------------------------------|
B|----10---10--10--10--------------------------------------------------------|
G|----7----7----7---7------------do that till the verse----------------------|
D|---------------------------------------------------------------------------|
A|---------------------------------------------------------------------------|
E|---------------------------------------------------------------------------|

Real Chorus

         A      G      D     A
e|---------------------------------------------------------------------------|
B|---------------------------------------------------------------------------|
G|---------------------7-----------------------------------------------------|
D|-------7------5------7-----7-----------------------------------------------|
A|-------7------5------5-----7-----------------------------------------------|
E|-------5------3------------5-----------------------------------------------|

Sha La La...
           A     D     A     D
e|---------------------------------------------------------------------------|
B|---------------------------------------------------------------------------|
G|---------------7-----------7-----------------------------------------------|
D|---------7-----7-----7-----7-----------------------------------------------|
A|---------7-----5-----7-----5-----------------------------------------------|
E|---------5-----------5-----------------------------------------------------|

Solo:

e|------------------------9---9---9------------------------------------------|
B|-------------------------------------9------5---7---7br---5----------------|
G|----4b----2----------9---9---9-------7------------------------7----7p5--2--|
D|---------------------------------------------------------------------------|
A|---------------------------------------------------------------------------|
E|---------------------------------------------------------------------------|

e|-----9---10---9-------------9---10---9------------9---10---9---------------|
B|------------------10---------------------10--------------------10----------|
G|-----------------------12---------------------11--------------------9------|
D|---------------------------------------------------------------------------|
A|---------------------------------------------------------------------------|
E|---------------------------------------------------------------------------|

e|---------------------------------------------17----------------------------|
B|--------------------------15----17----17b----------17----------------------|
G|-----6/7-------------------------------------------------------------------|
D|---------------------------------------------------------------------------|
A|---------------------------------------------------------------------------|
E|---------------------------------------------------------------------------|

e|---------------------------------------------------------------------------|
B|-------17----15---15-------------------------------------------------------|
G|-----------------------15--------------------------------------------------|
D|----------------------------15---------------------------------------------|
A|---------------------------------------------------------------------------|
E|---------------------------------------------------------------------------|


************************************

| /   slide up
| \   slide down
| h   hammer-on
| p   pull-off
| ~   vibrato
| +   harmonic
| x   Mute note
| b   Bend
| pb  Pre-bend
| br  Bend release
| pbr Pre-bend release
| brb Bend release bend

************************************
            

comments powered by Disqus
↑ Back to top | Bon Jovi Tabs for When We Were Beautiful. Lyrics for acoustic guitar and electric guitar. Tablatures and chords are parodies/interpretations of the original songs. You may use it for private study, scholarship, research or language learning purposes only