» » »

Bon Jovi, We Werent Born To Follow Tabs (ver.2)

Artists:  A B C D E F G H I J K L M N O P Q R S T U V W X Y Z # 

We Werent Born To Follow Tabs (ver.2)

Bon Jovi Tabs
 Rating:
4/5 (4 votes)
We Werent Born To Follow lessons Tabs too difficult? Try these video lessons and learn fast
1
                (Intro)
Bon Jovi
We Weren't Born to Follow
The Circle


Second guitar plays chords.


E                             B
-----------------------------|------------------------------|
-x--x--12--x-x-x--12--x-x----|-x--x--12--x-x-x--12--x-x-----|
-----------------------------|------------------------------|
--------------------------9--|--------------------------11--|
-----------------------------|------------------------------|
-----------------------------|------------------------------|

F#                                                                          
------------------------------|---------------------------|
-x--x--11--x-x-x--11--x-x-----|-12--x--x--11--x--x--11----|
------------------------------|---------------------------|
--------------------------11--|---------------------------|
------------------------------|---------------------------|
------------------------------|---------------------------|

E                     B
-7----0----0---------|---7-----------------|
-5----5----5/7\5--4--|---4--4---4--5--4----|
------------------4--|------4---4--4--4----|
---------------------|---------------------|
---------------------|---------------------|
---------------------|---------------------|

F#                        
----------------------|----------------------|
----------------------|----------------------|
-6----6----6--4--6----|-6----6----6--4--6----|
-4----4----4--4--4----|-4----4----4--4--4----|
----------------------|----------------------|
----------------------|----------------------|
            
Submit corrections

comments powered by Disqus
↑ Back to top | Bon Jovi Tabs for We Werent Born To Follow. Lyrics for acoustic guitar and electric guitar. 1 Tablatures and chords are parodies/interpretations of the original songs. You may use it for private study, scholarship, research or language learning purposes only