» » »

Bon Jovi, Wanted Tabs (ver.1)

Artists:  A B C D E F G H I J K L M N O P Q R S T U V W X Y Z # 

Wanted Tabs (ver.1)

Bon Jovi Tabs
 Rating:
4/5 (4 votes)
Wanted lessons Tabs too difficult? Try these video lessons and learn fast
1
                VERSE 1:
It's (D)all the same (C)only the names will (G)change
And (C)ev'ryday(G) it seems we're (F)wasting a(D)way
(D)Another place where the (C)faces are so (G)cold
(C)I'd drive all (G)night just to (F)get back (D)home

CHORUS:
I'm a (C)cowboy(G) on a (F)steel horse I (D)ride
I'm (C)wanted(G) (F)dead or (D)alive
(C)Wanted(G) dead or (D)alive

PLAY THE INTRO LICK HERE.

VERSE 2:
Sometimes (D)I sleep (C)sometimes is not for (G)days
And (C)people I meet (G)always go their (F)separate (D)ways
Some (D)times you tell the day by the (C)bottle that you (G)drink
And (C)times when all you (G)do (F)is (D)think

CHORUS:
I'm a (C)cowboy (G)on a (F)steel horse I (D)ride
I'm (C)wanted, (G)wanted, (F)dead or (D)alive
(C)Wanted, (G)wanted, (F)dead or (D)alive
Ooooh dead or (D)alive

SOLO ELECTRIC

POST SOLO:
Ooooh and I'm a (C)cowboy (G)on a (F)steel horse I (D)ride
I'm (C)wanted, (G)wanted, (F)dead or (D)alive

VERSE 3: 
And I (D)walk these streets a loaded (C)six string on my (G)back
I (C)play for keeps (G)cause I (F)might not make it (D)back
I been (D)ev'ry where still I'm (C)standing (G)tall
I've (C)seen a million (G)faces and I've (F)rock them (D)all

CHORUS:
'Cause I'm a (C)cowboy (G)on a (F)steel horse I (D)ride
I'm (C)wanted, (G)wanted, (F)dead or (D)alive
Well (C)I'm a cowboy(G) I got (F)the night on my (D)side
I'm (C)Wanted, (G)wanted, (F)dead or (D)alive
I still (C)ride, still (G)ride
(F)Dead or a(D)live
(F)Dead or a(G)live, (F)dead or a(D)live,
(F)Dead or a(G)live, (F)dead or a(D)live,

ENDING:

INTRO:
                                                                
e|-----13---------12---------10--------8-------5-------3------|
B|------------------------------------------------------------|
G|--14----14---12----12---10----10---9---9---5---5---4---4-4^3|
D|0----------0----------0----------0-------0-------0----------|
A|------------------------------------------------------------|
E|------------------------------------------------------------|
                                                      
e|-----13---------12---------10--------8-------5-------3---|
B|---------------------------------------------------------|
G|--14----14---12----12---10----10---9---9---5---5---4---4-| THEN FINISH ON
D|0----------0----------0----------0-------0-------0-------| THE CHORD 'D'
A|---------------------------------------------------------|
E|---------------------------------------------------------|
            
Submit corrections

comments powered by Disqus
↑ Back to top | Bon Jovi Tabs for Wanted. Lyrics for acoustic guitar and electric guitar. 1 Tablatures and chords are parodies/interpretations of the original songs. You may use it for private study, scholarship, research or language learning purposes only