» » »

Bon Jovi, Thank You For Loving Me Tabs (ver.3)

Artists:  A B C D E F G H I J K L M N O P Q R S T U V W X Y Z # 

Thank You For Loving Me Tabs (ver.3)

Bon Jovi Tabs
 Rating:
4/5 (4 votes)
Thank You For Loving Me lessons Tabs too difficult? Try these video lessons and learn fast
                THANK YOU FOR LOVING ME

(Intro...Piano transcribed for guitar)--electric guitar

e---0-2-0-----0-0-0-0---0-2-0----0-2-0-0-0-0--------
b--3-----3----3-3-3-3--3-----3--0----3-3-2-2--------
g------------2-2-2-2------------------2-2-2-2-------
d-----------------------------------------------7-7-
a---------------------------------------------------
e --------------------------------------------------

(guitar enters with piano playing above riff)--electric or acoustic

e--------------------------------------
b--10^-----------10^-------------------
g-----9^-9-7-7------9^-9-7/9~~----7-7--
d--------------------------------------
a--------------------------------------
e--------------------------------------

Lyrics begin:
It's hard for me, to say the things, I wanna say sometimes.  Theres's no one
here, but you and me, and the broken old street light...

Lock the doors...And leave the world outside...
(played after the above lyrics)
e--------------
b--------------
g--4/6-7-7/9-7-
d--------------
a--------------
e--------------

All I've got, to say to you, are these five words and I...

Thank you...for loving me...for being my eyes...

e-------------------------------------------------------
b------7----------------7-------------------------------
g-------7----------------7------------------4/6-7-7/9---
d-----------7-------------------7-----------------------
a-------------------------------------------------------
e-------------------------------------------------------

(repeat above riff throughout chorus)

I never knew, I had a dream, until that dream was you
(this part I made up in place of the orchestral music in the background)
(played after above lyrics)
e---------
b---------
g---------
d--7-5-4--
a---------
e---------

And when I look, into your eyes, the sky's a different blue...
Cross my heart, I wear no disguise...

e--------------
b--------------
g--4/6-7-7/9-7-
d--------------
a--------------
e--------------

And if I tried, you'd make me believe, that you'd believe my lies..

(repeat chorus w/ riff)

Bridge...
You pick me up when fall da-hown...you ring the bell before they count me out
here...

If I was drownin' you would part the sea...
(played after the above lyrics)

e--7----------
b---10--------
g-----9-8-7---
d-------------
a-------------
e-------------

And risk your life to rescue me...yeah...yeah yeah yeah yeah yeah yeah...

(Solo)

e-----------------------------------10-12-14-14^-12-14~~~---
b--------------------------------12^------------------------
g-----------------------------------------------------------
d--9^-9^-9^-----9--7/9----7^~~~-----------------------------
a-----------7-9---------------------------------------------
e-----------------------------------------------------------

Lock the doors, leave the world outside...
(played after the above lyrics)--acoustic

e-------0----
b--2--3--3---
g---2--2--2--
d------------
a------------
e------------

Repeat chorus

Outro:  (this part is really nice)

e--------------------------------------------------------------
b--10^------------10^------------------------------------------
g-----9^-9-7-7-------9^-9-7/9------(repeat once)------7-9-7~~~-
d-----------------------------7-7-------------------7-7--------
a------------------------------------------------7/9-----------
e--------------------------------------------------------------
            
Submit corrections

comments powered by Disqus
↑ Back to top | Bon Jovi Tabs for Thank You For Loving Me. Lyrics for acoustic guitar and electric guitar. Tablatures and chords are parodies/interpretations of the original songs. You may use it for private study, scholarship, research or language learning purposes only