» » »

Something For The Pain Tabs (ver.2)

Artists:  A B C D E F G H I J K L M N O P Q R S T U V W X Y Z # 

Something For The Pain Tabs (ver.2)

Bon Jovi
Rating:
0/5 (0 votes)

Hard to play? Try these video lessons and learn fast.
                (Intro)
Album:These Days

Key:
:4: =repeat 4 times
b*  =bend up then down
/   =slide

|-----------------------------------------:4:-------0--0-------0-
|-0---------------------------------------:4:-------0--0---0---0-
|-4--4---6b---1--1--2---1-----2--2--1b*---:4:--3/4-------2---2---
|-2-----------2--2--2------2--2--2------2-:4:--1/2---------------
|-------------2--2--2---------2--2--------:4:--------------------
|-0---------------------------------------:4:--------------------

----------0--0-------0---------0--0---0---0---------------------|
----------0--0---0---0---------0--0---4---4---------------------|
-2-4-2/1-------4---4--------------------------------------------|
-----------------------------------------------------------2----|
-----------------------4--3/4-------2---2----2-4-2------2-------|
-----------------------------------------------------5----------|

And then it goes on to the first verse...

I'll be back with the rest of the song soon.      :>)

BON JOVI IS THE BEST BAND OF ALL TIMES.
RICHIE SAMBORA IS THE BEST GUITARIST OF ALL TIMES

By dooey_the_bonjovi_fan
            
Hard to play? Try these video lessons and learn fast. | Correct




comments powered by Disqus
↑ Back to top | Tablatures and chords are parodies/interpretations of the original songs. You may use it for private study, scholarship, research or language learning purposes only