>
 >
Never Say Goodbye

Never Say Goodbye Bass Tabs

Bon Jovi - Never Say Goodbye chords, tabs, tablatures, lyrics

Guitar lessons | Add/correct | Request | Top 50 tabs Artists:  A B C D E F G H I J K L M N O P Q R S T U V W X Y Z 0-9

Never Say Goodbye Bass Tabs – Bon Jovi

CD, Sheet music, Poster

Do you like Never Say Goodbye? Share with your friends now
Bass TabsChordsChords v2Chords v3TabsTabs v2Tabs v3Tabs v4Ukulele
-----------------------------------------------------------------
Never Say Goodbye - Bon Jovi
-----------------------------------------------------------------


Tuning: EADG

Intro:
G|------------|--------------|----------------|-------------------|
D|------------|--------------|----------------|----------5--------|
A|------------|-4~--4-4--5h7-|-5~--5-5~---5---|-5--7--8-----------|
E|-5~--5-5~--7|--------------|--------------5-|-------------------|


Verse 1: As I sit in this... (0:15)
G|------------|-------------|-----------------|-------------------|
D|--7~--------|-------------|-5~--5-5-5-------|-------------------|
A|------------|-4~--4-4~----|--------------5~-|---5-5-4-----------|
E|------5~----|-------------|------------5----|---------7-5~------|

G|------------|-------------|-----------------|-------------------|
D|------------|-------------|-5~--5~--4-------|-------------------|
A|------------|-4~--4-4~----|------------7-5~-|-575---4-----------|
E|------5~----|-------------|-----------------|---------7-5~------|

G|------------|-------------|-----------------|-------------------|
D|------------|-------------|-5~----4~-----5--|-------------------|
A|------------|-4~--4-4--7--|-----------------|---4-5-------------|
E|----5-5~--7-|-------------|-----------------|-7-------2--2-3-4--|

Chorus: Never say goodbye... (0:58)
G|------------|--------------|----------------|-------------------|
D|------------|--------------|----------------|-------------------|
A|------------|-4~--4-4--5h7-|-5~--5-5~-------|-5~--5-5--7--------|
E|-5~--5-5~--7|--------------|--------------5-|-------------------|

G|------------|--------------|----------------|-------------------|
D|------------|--------------|----------------|----------5--------|
A|------------|-4~--4-4--5h7-|-5~--5-5~-------|-5--7--8-----------|
E|-5~--5-5~--7|--------------|----------------|-------------------|

G|------------|--------------|----------------|-------------------|
D|------------|--------------|----------------|-------------------|
A|------------|-4~--4-4--5h7-|-5~--5-5~---5---|-5~----------------|
E|-5~--5-5~--7|--------------|--------------5-|-------------------|

Verse 2: Remember days... (1:41)
G|------------|--------------|----------------|-------------------|
D|------------|--------------|-5~--5~---------|-------------------|
A|------------|-4~--4~-------|----------------|-5~--5-5-----------|
E|-5~--5~--5--|--------------|-------------7--|----------2--------|

G|------------|--------------|----------------|-------------------|
D|------------|--------------|-5~--5~---------|-------------------|
A|------------|-4~--4-4------|----------------|-5~---5-5-5--------|
E|-5~---5~----|--------------|-------------7--|-----5-5-5-5-2-3-4-|

G|------------|-------------|-----------------|-------------------|
D|------------|-------------|-5~----4~-----5--|-------------------|
A|------------|-4~--4-4~----|-----------------|---4-5-------------|
E|-5~--5-5~-7-|-------------|-----------------|-7-------2--2-3-4--|

Chorus: Never say goodbye...(2:23)
G|------------|--------------|----------------|-------------------|
D|------------|--------------|----------------|-------------------|
A|------------|-4~--4-4--5h7-|-5~--5-5~-------|-5~--5-5--7--------|
E|-5~--5-5~--7|--------------|--------------5-|-------------------|

G|------------|--------------|----------------|-------------------|
D|------------|--------------|----------------|----------5--------|
A|------------|-4~--4-4--5h7-|-5~--5-5~-------|-5--7--8-----------|
E|-5~--5-5~--7|--------------|-----------5-5--|-------------------|

Solo: (2:52)
G|------------|--------------|----------------|-------------------|
D|------------|--------------|----------------|-------------------|
A|------------|-4~--4-4--5h7-|-5~--5-5~-------|-------------------|
E|-5~--5-5~--7|--------------|----------------|-1~--1-3-----------|

G|------------|--------------|----------------|-------------------|
D|------------|--------------|----------------|-------------------|
A|------------|-4~--4-4--5h7-|-5~--5-5~-------|-------------------|
E|-5~--5-5~-78|--------------|----------------|1-11-1-11-3-33-3-33|

G|------------|-------------|-----------------|-------------------|
D|------------|-------------|-5~----4-4~------|-------------------|
A|------------|-4~--4-4--7--|-----------------|---4-5-------------|
E|-5~--5-5~--7|-------------|-----------------|-7-------2--2-3-4--|

Chorus: Never say goodbye...(3:33)
G|------------|--------------|----------------|-------------------|
D|------------|--------------|----------------|-------------------|
A|------------|-4~--4-4--5h7-|-5~--5-5~-------|-5~--5-5--7--------|
E|-5~--5-5~--7|--------------|--------------5-|-------------------|

G|------------|--------------|----------------|-------------------|
D|------------|--------------|----------------|----------5--------|
A|------------|-4~--4-4--5h7-|-5~--5-5~-------|-5--7--8-----------|
E|-5~--5-5~--7|--------------|--------------5-|-------------------|

G|------------|--------------|----------------|-------------------|
D|------------|--------------|----------------|-------------------|
A|------------|-4~--4-4--5h7-|-5~--5-5~-----5-|-------------42----|
E|-5~--5-5~--7|--------------|----------------|-1--1--3--3--------|

G|------------|--------------|----------------|-------------------|
D|------------|--------------|----------------|-----------5~------|
A|------------|-4~--4-4--5h7-|-5~--5-5~-------|-5~--7~--8~--------|
E|-5~--5-5~--7|--------------|--------------5~|-------------------|





Comments


Popular Bon Jovi tabs & chords
Livin' On A Prayer Bass Tabs
Destination Anywhere Chords
Gotta Have A Reason Chords
Santa Fe Chords
Cats In The Cradle Tabs
Ill Be There For You 2 Tabs
Love Is War Tabs
You Give Love A Bad Name Intro Tabs
I Will Be There For You Ukulele
Joey Ukulele


Song lyrics



↑ Back to top | Tablatures and chords are parodies/interpretations of the original songs. You may use it for private study, scholarship, research or language learning purposes only
© 2014 AZChords.com Contact us | Privacy policy | DMCA | Add/correct tabs | Request tabs | Top 50 tabs