» » »

Bon Jovi, Never Say Goodbye Tabs (ver.1)

Artists:  A B C D E F G H I J K L M N O P Q R S T U V W X Y Z # 

Never Say Goodbye Tabs (ver.1)

Bon Jovi Tabs
Rating:
0/5 (0 votes)
Never Say Goodbye lessons Tabs too difficult? Try these video lessons and learn fast
                
INTRO

   First guitar (dist - strat/marshall, lot of vibrato on each note)
e|--------------------------|-----------------------------------------------|
B|--------------------------|-----------------------------------------------|
G|--------------------------|---------6---7---6-----------7---6-------------|
D|------------9~---9b11r9---|-----9---------------9---7-----------9---7-----|
A|----7~~-------------------|--7------------------------------------------7-|
E|--------------------------|-----------------------------------------------|
 |
 | Second guitar (basically an octave up - low in the mix)
e|--------------------------|---------9---10--9-----------10--9-------------|
B|-----------12---12b14r12--|-----12--------------12--10---------12--10-----|
G|----9---------------------|--9------------------------------------------9-|
D|--------------------------|-----------------------------------------------|
A|--------------------------|-----------------------------------------------|
E|--------------------------|-----------------------------------------------|


VERSE

    A   C#m   G    D
e|--0----4----3--------|
B|--2----5----3----3---|
G|--2----6----0----2---| 
D|--2----6----0----0---|
A|--0----4-------------|
E|------------3--------|

I sit here in this smokey room
The night about to end
I pass my time with strangers
But this bottle is my only friend

Remember when we used to park out ? street
Out in the dark
Remember when we lost the keys
And you lost more than that in my back seat, baby

Remember how we used to talk about busting out
We'd break their hearts

    G  D
e|--3--2----|
B|--3--3----| x 2
G|--0--2----|
D|--0--0----|
A|----------|
E|--3-------|


Together, forever

CHORUS

    A       C#m     D   Dm
e|--0--------4------3---1-----|
B|--2--------5------2---2-----|
G|--2--------6------3---3-----| 
D|--2--------6------0---0-----|
A|--0--------4----------------|
E|----------------------------|

e|--------------------------|---------9---10--9-----------10--9-------------|
B|-----------12---12b14r12--|-----12--------------12--10---------12--10-----|
G|----9---------------------|--9------------------------------------------9-|
D|--------------------------|-----------------------------------------------|
A|--------------------------|-----------------------------------------------|
E|--------------------------|-----------------------------------------------|


Never say goodbye
Never say goodbye
You and me and my old friends
Hoping it would never end
Say goodbye
Never say goodbye (ie)
Holding on we got to try
Holding on to never say goodbye

PLAY INTRO AGAIN (without second guitar)

VERSE 2
(rhythm is very chorused out, perhaps an acoustic)

Remember days of skipping school
Racing cars and being cool
With a 6 pack and the radio
We didn't need no place to go

Remember at the prom that night
You and me we had a fight
But the band played our favorite song
And I held you in my arms so strong

We danced so close, we danced so slow
And I swore I'd never let you go

G D       G  D 
Together, forever

CHORUS 2

SOLO (over verse rhythm)
                        *artifical harmonic
e|----------------------------------------9b10r9-9b10r9-----------------------
B|------------------------------------------------------10~-------------------
G|---------------7-6---4h6p4----9b11r9~~~-------------------------------------
D|--------7-/9---------------5---------------------------------3-5--7---5-7-9~
A|-----7-----------------------------------------------------3---------5------
E|--5-------------------------------------------------------------------------


e|--------7-10-9-7h9p7-----12b14r12~~---21b22r21-21b22r21--17~~-|
B|-----10--------------10---------------------------------------|
G|---9----------------------------------------------------------|
D|-7------------------------------------------------------------|
A|--------------------------------------------------------------|
E|--------------------------------------------------------------|

Unsure on the fast part

Play chorus 2x with chorus riff and end on A
            
Submit corrections

comments powered by Disqus
↑ Back to top | Bon Jovi Tabs for Never Say Goodbye. Lyrics for acoustic guitar and electric guitar. Tablatures and chords are parodies/interpretations of the original songs. You may use it for private study, scholarship, research or language learning purposes only