>
 >
Keep The Faith 3

Keep The Faith 3 Bass Tabs

Bon Jovi - Keep The Faith 3 chords, tabs, tablatures, lyrics

Guitar lessons | Add/correct | Request | Top 50 tabs Artists:  A B C D E F G H I J K L M N O P Q R S T U V W X Y Z 0-9

Keep The Faith 3 Bass Tabs – Bon Jovi

CD, Sheet music, Poster

Do you like Keep The Faith 3? Share with your friends now
Bass TabsBass Tabs v2Bass Tabs v3Bass Tabs v4ChordsTabsTabs v2Ukulele
sorry my last upload was crappy heres the whole thing i play with my band

this sounds better if u tune to Eb,AB,DB,GB but i dont have to it just sounds closer to 
tone on the cd if u do, but who wants to be a clone ehh?

INTRO
G|-------------------------------|-------------------------------|--------------------------------|
D|-555-55-3------3------3-----5--|-555-55-3------3------3-----5--|---------5--5-------5--------3--|
A|-----------5------5------------|-----------5------5------------|-3-3-3----------5-------5-------|
E|-------------------------------|-------------------------------|--------------------------------|


G|-------------------------------|-------------------------------|-------------------------------|
D|-555-55-3------3------3-----5--|-555-55-3------3------3-----5--|-555-55-3------3------3-----5--|
A|-----------5------5------------|-----------5------5------------|-----------5------5------------|
E|-------------------------------|-------------------------------|-------------------------------|


G|-------------------------------|-------------------------------|
D|-----------5-3------5-------3--|-555-55-3------3------3-----5--|
A|-3-3-3-3--------5-------5------|-----------5------5------------|
E|-------------------------------|-------------------------------|


VERSE 1 (PLAYED 3X)

""MOTHER MOTHER TELL...............""
G|-------------------------------|-------------------------------|--------------------------------|
D|-555-55-3------3------3-----5--|-555-55-3------3------3-----5--|---------5--5-------5--------3--|
A|-----------5------5------------|-----------5------5------------|-3-3-3----------5-------5-------|
E|-------------------------------|-------------------------------|--------------------------------|


G|-------------------------------|-------------------------------|-------------------------------|
D|-555-55-3------3------3-----5--|-555-55-3------3------3-----5--|-555-55-3------3------3-----5--|
A|-----------5------5------------|-----------5------5------------|-----------5------5------------|
E|-------------------------------|-------------------------------|-------------------------------|


G|-------------------------------|-------------------------------|
D|-----------5-3------5-------3--|-555-55-3------3------3-----5--|
A|-3-3-3-3--------5-------5------|-----------5------5------------|
E|-------------------------------|-------------------------------|


CHARUS

"FAITH NOW YOUR GONA......"
G|-------------------------------|-------------------------------|-3-3-3------3-3-------3-----3--|
D|---------------3---3---3---3---|-555-55-3------3------3-----5--|--------5---------5------5-----|
A|-6--6--6-----------------------|-----------5------5------------|-------------------------------|
E|-------------------------------|-------------------------------|-------------------------------|

G|-------------------------------|-------------------------------|-------------------------------|
D|-----------5-3------5-------3--|-555-55-3------3------3-----5--|-555-55-3------3------3-----5--|
A|-3-3-3-3--------5-------5------|-----------5------5------------|-----------5------5------------|
E|-------------------------------|-------------------------------|-------------------------------|


G|-3-3-3------3-3-------3-----3--|-------------------------------|-------------------------------|
D|--------5---------5------5-----|-----------5-3------5-------3--|---------------3---3---3---3---|
A|-------------------------------|-3-3-3-3--------5-------5------|-6--6--6-----------------------|
E|-------------------------------|-------------------------------|-------------------------------|

G|-------------------------------|-------------------------------|-------------------------------|
D|--5--5--5----5----5--5----5--5-|--5--5--5----5----5--5----5--5-|--5--5--5----5----5--5----5--5-|
A|-------------------------------|-------------------------------|-------------------------------|
E|-------------------------------|-------------------------------|-------------------------------|


G|-------------------------------|-------------------------------|-------------------------------|
D|--5--5--5----5----5--5----5--5-|--5--5--5----5----5--5----5--5-|--5--5--5----5----5--5----5--5-|
A|-------------------------------|-------------------------------|-------------------------------|
E|-------------------------------|-------------------------------|-------------------------------|


G|--5--5--5----5----5--5----5--5-|-------------------------------|-------------------------------|
D|-------------------------------|---------------3---3---3---3---|--5--5--5----5----5--5----5--5-|
A|-------------------------------|-6--6--6-----------------------|-------------------------------|
E|-------------------------------|-------------------------------|-------------------------------|


VERSE 2 (PLAYED 3X)

"TEL ME BABY....."
G|-------------------------------|-------------------------------|--------------------------------|
D|-555-55-3------3------3-----5--|-555-55-3------3------3-----5--|---------5--5-------5--------3--|
A|-----------5------5------------|-----------5------5------------|-3-3-3----------5-------5-------|
E|-------------------------------|-------------------------------|--------------------------------|


G|-------------------------------|-------------------------------|-------------------------------|
D|-555-55-3------3------3-----5--|-555-55-3------3------3-----5--|-555-55-3------3------3-----5--|
A|-----------5------5------------|-----------5------5------------|-----------5------5------------|
E|-------------------------------|-------------------------------|-------------------------------|


G|-------------------------------|-------------------------------|
D|-----------5-3------5-------3--|-555-55-3------3------3-----5--|
A|-3-3-3-3--------5-------5------|-----------5------5------------|
E|-------------------------------|-------------------------------|


CHURS 2

"FAITH YOU KNOW YOUR GONA....."
G|-------------------------------|-------------------------------|-3-3-3------3-3-------3-----3--|
D|---------------3---3---3---3---|-555-55-3------3------3-----5--|--------5---------5------5-----|
A|-6--6--6-----------------------|-----------5------5------------|-------------------------------|
E|-------------------------------|-------------------------------|-------------------------------|

G|-------------------------------|-------------------------------|-------------------------------|
D|-----------5-3------5-------3--|-555-55-3------3------3-----5--|-555-55-3------3------3-----5--|
A|-3-3-3-3--------5-------5------|-----------5------5------------|-----------5------5------------|
E|-------------------------------|-------------------------------|-------------------------------|


G|-3-3-3------3-3-------3-----3--|-------------------------------|-------------------------------|
D|--------5---------5------5-----|-----------5-3------5-------3--|---------------3---3---3---3---|
A|-------------------------------|-3-3-3-3--------5-------5------|-6--6--6-----------------------|
E|-------------------------------|-------------------------------|-------------------------------|

G|-------------------------------|-------------------------------|-------------------------------|
D|--5--5--5----5----5--5----5--5-|--5--5--5----5----5--5----5--5-|--5--5--5----5----5--5----5--5-|
A|-------------------------------|-------------------------------|-------------------------------|
E|-------------------------------|-------------------------------|-------------------------------|


G|-------------------------------|-------------------------------|-------------------------------|
D|--5--5--5----5----5--5----5--5-|--5--5--5----5----5--5----5--5-|--5--5--5----5----5--5----5--5-|
A|-------------------------------|-------------------------------|-------------------------------|
E|-------------------------------|-------------------------------|-------------------------------|


G|--5--5--5----5----5--5----5--5-|-------------------------------|-------------------------------|
D|-------------------------------|---------------3---3---3---3---|--5--5--5----5----5--5----5--5-|
A|-------------------------------|-6--6--6-----------------------|-------------------------------|
E|-------------------------------|-------------------------------|-------------------------------|

SOLO
(PLAYED WITH SOLO 2X)

"YEA YEA YEA"
G|-------------------------------|-------------------------------|--------------------------------|
D|-555-55-3------3------3-----5--|-555-55-3------3------3-----5--|---------5--5-------5--------3--|
A|-----------5------5------------|-----------5------5------------|-3-3-3----------5-------5-------|
E|-------------------------------|-------------------------------|--------------------------------|


G|-------------------------------|-------------------------------|-------------------------------|
D|-555-55-3------3------3-----5--|-555-55-3------3------3-----5--|-555-55-3------3------3-----5--|
A|-----------5------5------------|-----------5------5------------|-----------5------5------------|
E|-------------------------------|-------------------------------|-------------------------------|


G|-------------------------------|-------------------------------|
D|-----------5-3------5-------3--|-555-55-3------3------3-----5--|
A|-3-3-3-3--------5-------5------|-----------5------5------------|
E|-------------------------------|-------------------------------|


VERSE 3

comes in when John says "SOME TIMES I WAIT FOR EAVER"
G|-------------------------------|-------------------------------|--------------------------------|
D|-555-55-3------3------3-----5--|-555-55-3------3------3-----5--|---------5--5-------5--------3--|
A|-----------5------5------------|-----------5------5------------|-3-3-3----------5-------5-------|
E|-------------------------------|-------------------------------|--------------------------------|


G|-------------------------------|-------------------------------|-------------------------------|
D|-555-55-3------3------3-----5--|-555-55-3------3------3-----5--|-555-55-3------3------3-----5--|
A|-----------5------5------------|-----------5------5------------|-----------5------5------------|
E|-------------------------------|-------------------------------|-------------------------------|


G|-------------------------------|-------------------------------|-------------------------------|
D|-----------5-3------5-------3--|-555-55-3------3------3-----5--|-555-55-3------3------3-----5--|
A|-3-3-3-3--------5-------5------|-----------5------5------------|-----------5------5------------|
E|-------------------------------|-------------------------------|-------------------------------|

G|-3-3-3------3-3-------3-----3--|-------------------------------|-------------------------------|
D|--------5---------5------5-----|-----------5-3------5-------3--|-555-55-3------3------3-----5--|
A|-------------------------------|-3-3-3-3--------5------5-------|-----------5------5------------|
E|-------------------------------|-------------------------------|-------------------------------|


CHURS 3

G|-------------------------------|-------------------------------|-3-3-3------3-3-------3-----3--|
D|---------------3---3---3---3---|-555-55-3------3------3-----5--|--------5---------5------5-----|
A|-6--6--6-----------------------|-----------5------5------------|-------------------------------|
E|-------------------------------|-------------------------------|-------------------------------|

G|-------------------------------|-------------------------------|-------------------------------|
D|-----------5-3------5-------3--|-555-55-3------3------3-----5--|-555-55-3------3------3-----5--|
A|-3-3-3-3--------5-------5------|-----------5------5------------|-----------5------5------------|
E|-------------------------------|-------------------------------|-------------------------------|


G|-3-3-3------3-3-------3-----3--|-------------------------------|-------------------------------|
D|--------5---------5------5-----|-----------5-3------5-------3--|---------------3---3---3---3---|
A|-------------------------------|-3-3-3-3--------5-------5------|-6--6--6-----------------------|
E|-------------------------------|-------------------------------|-------------------------------|

G|-------------------------------|-------------------------------|-------------------------------|
D|--5--5--5----5----5--5----5--5-|--5--5--5----5----5--5----5--5-|--5--5--5----5----5--5----5--5-|
A|-------------------------------|-------------------------------|-------------------------------|
E|-------------------------------|-------------------------------|-------------------------------|


G|-------------------------------|-------------------------------|-------------------------------|
D|--5--5--5----5----5--5----5--5-|--5--5--5----5----5--5----5--5-|--5--5--5----5----5--5----5--5-|
A|-------------------------------|-------------------------------|-------------------------------|
E|-------------------------------|-------------------------------|-------------------------------|


G|--5--5--5----5----5--5----5--5-|-------------------------------|-------------------------------|
D|-------------------------------|---------------3---3---3---3---|--5--5--5----5----5--5----5--5-|
A|-------------------------------|-6--6--6-----------------------|-------------------------------|
E|-------------------------------|-------------------------------|-------------------------------|

OUTRO

"YEA YEA YEA YEA"
G|-------------------------------|-------------------------------|--------------------------------|
D|-555-55-3------3------3-----5--|-555-55-3------3------3-----5--|---------5--5-------5--------3~-|
A|-----------5------5------------|-----------5------5------------|-3-3-3----------5-------5-------|
E|-------------------------------|-------------------------------|--------------------------------|





Comments


Popular Bon Jovi tabs & chords
Have A Nice Day Bass Tabs
Amen Chords
Just Older Chords
Live Before You Die Chords
Stick To Your Guns Chords
Always (Solo Ver 2) Tabs
In These Arms Tabs
Open All Night Tabs
We Can Dance Tabs
Who Says You Cant Go Home 1 Tabs


Song lyrics



↑ Back to top | Tablatures and chords are parodies/interpretations of the original songs. You may use it for private study, scholarship, research or language learning purposes only
© 2014 AZChords.com Contact us | Privacy policy | DMCA | Add/correct tabs | Request tabs | Top 50 tabs