» » »

Bon Jovi, Joey Tabs (ver.2)

Artists:  A B C D E F G H I J K L M N O P Q R S T U V W X Y Z # 

Joey Tabs (ver.2)

Bon Jovi Tabs
 Rating:
4/5 (4 votes)
Joey lessons Tabs too difficult? Try these video lessons and learn fast
                This should it be. I heard it out from the “this left feels right”-DVD.  



   C                           Dm			
h--------------------------------------------------------------
g---------------10h12p10---10h12p10------10~ ------------------
D---------10h12---------12-----------12------------------------
A--------------------------------------------------------------

      Bb                  Gm                      C                                
h--------------------------------------------------------------
g-----------10~ ---------------12~ ---------12/14-12~ ~--------
D-----10------------------10-----------------------------------
A--------------------------------------------------------------

                   
                     
                     Dm                                Gm                          
h--------------------------------------------------------------
g-------10h12p10--10h12p10-------10~ ---------12-12/14-12~ ~ --
D--10h12--------12---------12----------------------------------
A--------------------------------------------------------------

           Am                Bb
h-------------------------------------------
g----14p12\10 ~------12p10\9/10-------------
D-------------------------------------------
A-------------------------------------------
            
Submit corrections

comments powered by Disqus
↑ Back to top | Bon Jovi Tabs for Joey. Lyrics for acoustic guitar and electric guitar. Tablatures and chords are parodies/interpretations of the original songs. You may use it for private study, scholarship, research or language learning purposes only