» » »

Have A Nice Day Tabs (ver.7)

Artists:  A B C D E F G H I J K L M N O P Q R S T U V W X Y Z # 

Have A Nice Day Tabs (ver.7)

Bon Jovi
Rating:
0/5 (0 votes)

Hard to play? Try these video lessons and learn fast.
                capo 2nd fret standard tunning

intro  (B Dsus4 G Dsus4 A A)2x


B  Bx                                     (B Dsus4 G Dsus4 A A)
why you wanna tell me how to live my life
B     Bx          		                  (B Dsus4 G Dsus4 A A)
who are you to tell me if its black or its white
 B					  D
momma can you help me try to understand, is inocinc the
difference between a boy and a man
 A                                                         G
my daddy lived a lye that just the price that he paid he sacrificed his
just slaved it away

B               G            D             	    A
ohhhh if its one thing i hang on to,  that gets me through the night
 B                 G         D                   A
i    aint gonna do what i dont want to, im gonna live my life
 B                      G                     D
shinin like a diamond rollin with the dice, standing on the ledge
           A
showin the wind how to fly
E         E    E    E    E    E      G G	    (B Dsus4 G Dsus4 A A)2x
when the world gets in my face i say        have a nice day

B     Bx                                    (B Dsus4 G Dsus4 A A)
take a look around no nothins what it seams
B     Bx                                      (B Dsus4 G Dsus4 A A)
were livin in a broken home of hopws and dreams
 B					     D
let me be the first to shake a helpin hand, anybody brave enuff to takea stand
 A                                                 G
i knocked on every door on every deadend street, lookin for forgiveness and
whats left to believe

pause

B               G            D             	    A
ohhhh if its one thing i hang on to,  that gets me through the night
 B                 G         D                   A
i    aint gonna do what i dont want to, im gonna live my life
 B                      G                     D
shinin like a diamond rollin with the dice, standing on the ledge showin
 A
the wind how to fly
E          E    E    E   E     E      G G	    (B Dsus4 G Dsus4 A A)2x
when the world gets in my face i say       have a nice day

solo played like without capo

e------------------------------------------------------------------|
b-13^~~~13^r12-10-13^~~~13-12-10h12-13-12-10-12~~~~14\13-10--------|
g--------------------------------------------------12\11-11-12^~~~-|
d------------------------------------------------------------------|
a------------------------------------------------------------------|
E------------------------------------------------------------------|

e--------------------------------13^---13^13^13^13rb1312r11----------|
b-11--13^-11--13^-11--13^-11--13^------------------------------------|
g-13^r----13^r----13^r----13^r------------------------------11~~~~---|
d--------------------------------------------------------------------|
a--------------------------------------------------------------------|
E--------------------------------------------------------------------|

e-------------------||
b-/10\9-7-----------||
g---9-----6-4-2-2-2-||     (B Dsus4 G Dsus4 A A)2X
d---------------2-2-||
a-------------------||
E-------------------||

B               G            D             	    A
ohhhh if its one thing i hang on to,  that gets me through the night
 B                 G         D                   A
i    aint gonna do what i dont want to, im gonna live my life
 B                      G                     D
shinin like a diamond rollin with the dice, standing on the ledge showin
 A
the wind how to fly
E          E    E    E   E     E      G G	    (B Dsus4 G Dsus4 A A)6x
when the world gets in my face i say        have a nice day
            
Hard to play? Try these video lessons and learn fast. | Correct




comments powered by Disqus
↑ Back to top | Tablatures and chords are parodies/interpretations of the original songs. You may use it for private study, scholarship, research or language learning purposes only