» » »

Have A Nice Day Tabs (ver.3)

Artists:  A B C D E F G H I J K L M N O P Q R S T U V W X Y Z # 

Have A Nice Day Tabs (ver.3)

Bon Jovi
Rating:
0/5 (0 votes)

Hard to play? Try these video lessons and learn fast.
                standard tuning (eadgbe)

im not very good at figuring out solos sorry, you wont find one here

intro

------------------------------------------|
------------------------------------------|
-------9---14---9-------------------------|
--11---9---14---9---9-9-------------------| 2 times
--11---7---12---7---9-9-------------------|
--9-----------------7-7-------------------|


main verse

------------------------------------------|
------------------------------------------|
---------------------9-9-9-14-14-9--------| 2 times
-11-x-x-x-x-x--11-11-9-9-9-14-14-9-9-9----|
-11-x-x-x-x-x--11-11-7-7-7-12-12-7-9-9----|
-9--x-x-x-x-x--9--9----------------7-7----|



bridge

------------------------------------------|
------------------------------------------|
---------9------11------14----------------|
-11------9-x16--11-x16--14-x16------------|
-11-x16--7------9-------12----------------|
-9----------------------------------------|


chorus

------------------------------------------|
------------------------------------------|
-6-----2-----9-----4----------------------| 3 times
-6-x5--2-x5--9-x5--4-x5-------------------|
-4-----0-----7-----2----------------------|
------------------------------------------|

------------------------------------------|
------------------------------------------|
--6-----2-2-------------------------------|
--6-x16-2-2-------------------------------|
--4-----0-0-------------------------------|
------------------------------------------|

------------------------------------------|
------------------------------------------|
----------9-9-9-14-14-9-------------------|
-11-11-11-9-9-9-14-14-9-9-9---------------| 2 times
-11-11-11-7-7-7-12-12-7-9-9---------------|
--9--9--9---------------7-7---------------|


main verse


------------------------------------------|
------------------------------------------|
---------------------9-9-9-14-14-9--------| 2 times
-11-x-x-x-x-x--11-11-9-9-9-14-14-9-9-9----|
-11-x-x-x-x-x--11-11-7-7-7-12-12-7-9-9----|
-9--x-x-x-x-x--9--9----------------7-7----|



bridge

------------------------------------------|
------------------------------------------|
---------9------11------14----------------|
-11------9-x16--11-x16--14-x16------------|
-11-x16--7------9-------12----------------|
-9----------------------------------------|


chorus

------------------------------------------|
------------------------------------------|
-6-----2-----9-----4----------------------| 3 times
-6-x5--2-x5--9-x5--4-x5-------------------|
-4-----0-----7-----2----------------------|
------------------------------------------|

------------------------------------------|
------------------------------------------|
--6-----2-2-------------------------------|
--6-x16-2-2-------------------------------|
--4-----0-0-------------------------------|
------------------------------------------|

------------------------------------------|
------------------------------------------|
----------9-9-9-14-14-9-------------------|
-11-11-11-9-9-9-14-14-9-9-9---------------| 2 times
-11-11-11-7-7-7-12-12-7-9-9---------------|
--9--9--9---------------7-7---------------|


Solo rytheme

------------------------------------------|
------------------------------------------|
-6-----2-----9-----4----------------------| 2 times
-6-x5--2-x5--9-x5--4-x5-------------------|
-4-----0-----7-----2----------------------|
------------------------------------------|

------------------------------------------|
------------------------------------------|
--6-----2-2-------------------------------|
--6-x16-2-2-------------------------------|
--4-----0-0-------------------------------|
------------------------------------------|

------------------------------------------|
------------------------------------------|
----------9-9-9-14-14-9-------------------|
-11-11-11-9-9-9-14-14-9-9-9---------------| 2 times
-11-11-11-7-7-7-12-12-7-9-9---------------|
--9--9--9---------------7-7---------------|

repeat intro

------------------------------------------|
------------------------------------------|
-------9---14---9-------------------------|
--11---9---14---9---9-9-------------------| 2 times
--11---7---12---7---9-9-------------------|
--9-----------------7-7-------------------|


chorus


------------------------------------------|
------------------------------------------|
-6-----2-----9-----4----------------------| 3 times
-6-x5--2-x5--9-x5--4-x5-------------------|
-4-----0-----7-----2----------------------|
------------------------------------------|

------------------------------------------|
------------------------------------------|
--6-----2-2-------------------------------|
--6-x16-2-2-------------------------------|
--4-----0-0-------------------------------|
------------------------------------------|

------------------------------------------|
------------------------------------------|
----------9-9-9-14-14-9-------------------|
-11-11-11-9-9-9-14-14-9-9-9---------------| 6 times
-11-11-11-7-7-7-12-12-7-9-9---------------|
--9--9--9---------------7-7---------------|
            
Hard to play? Try these video lessons and learn fast. | Correct




comments powered by Disqus
↑ Back to top | Tablatures and chords are parodies/interpretations of the original songs. You may use it for private study, scholarship, research or language learning purposes only