» » »

Have A Nice Day Tabs (ver.5)

Artists:  A B C D E F G H I J K L M N O P Q R S T U V W X Y Z # 

Have A Nice Day Tabs (ver.5)

Bon Jovi
Rating:
0/5 (0 votes)

Hard to play? Try these video lessons and learn fast.
                Esta cancion se toca con una cegilla en el segundo traste, y de esta forma el traste
de la cegilla se convierte en el traste 0. Tmb lo podeis tocar sin cegilla pero no os
sonara al tono de la cancion original. Disfrutar-la.


Intro

                                                                          
F#||-----------------------|---------------------|-----------------------|
C#||--3-------3-------3----|----3------2----2----|--3----3--3----3--3----|
A ||--4-------2-------0----|----2------2----2----|--4----4--2----2--0----|
E ||--4-------0-------0----|----0------2----2----|--4----4--0----0--0----|
B ||--2---------------2----|-----------0----0----|--2----2----------2----|
F#||------------------3----|---------------------|------------------3----|


                                                                    
---------------------|-----------------------|---------------------|
----3------2----2----|--3----3--3----3--3----|----3------2----2----|
----2------2----2----|--4----4--2----2--0----|----2------2----2----|
----0------2----2----|--4----4--0----0--0----|----0------2----2----|
-----------0----0----|--2----2----------2----|-----------0----0----|
---------------------|------------------3----|---------------------|


Verso x2

                                                                             wy you wana tell me ...
--x-----x--x--x--x------|--x--x--x--x--x--x--x-----|----------------------|
--3-----x--x--x--x------|--x--x--x--x--x--x--x--3--|------3--3------3--3--|
--4-----x--x--x--x------|--x--x--x--x--x--x--x--4--|------4--2------2--0--|
--4-----x--x--x--x------|--x--x--x--x--x--x--x--4--|------4--0------0--0--|
--2-----x--x--x--x------|--x--x--x--x--x--x--x--2--|------2------------2--|
--x-----x--x--x--x------|--------------------------|-------------------3--|


                                                                           
----------------------|
----3--3----2----2----|
----0--2----2----2----|
----0--0----2----2----|
----2-------0----0----|
----3-----------------|

Pre Chorus

Mama, can you...
--------------3--|-------------2----|-------------------|---------------2--|
--------------3--|-------------3----|----------------0--|---------------3--|
--------------4--|-------------2----|----------------1--|---------------0--|
--------------4--|-------------0----|----------------2--|---------------0--|
--------------2--|------------------|----------------2--|---------------2--|
--------------2--|------------------|----------------0--|---------------3--|


Chorus

Ohhh, if there’s one thing...                                                 
-----------------------|-----------------------|--2----2------2----0--|
--3----3------3--3--3--|----3----3--3----3--3--|--3----3------3----2--|
--4----4------4--4--0--|----0----0--0----0--2--|--2----2------2----2--|
--4----4------4--4--0--|----0----0--0----0--0--|--0----0------0----2--|
--2----2------2--2--2--|----2----2--2----2-----|-------------------0--|
--------------------3--|----3----3--3----3-----|----------------------|


                                                                       
----0----0--0----0----|-----------------------|-----------------------|
----2----2--2----2----|--3----3------3--3--3--|----3----3--3----3--3--|
----2----2--2----2----|--4----4------4--4--0--|----0----0--0----0--2--|
----2----2--2----2----|--4----4------4--4--0--|----0----0--0----0--0--|
----0----0--0----0----|--2----2------2--2--2--|----2----2--2----2-----|
----------------------|--------------------3--|----3----3--3----3-----|


                                                                      
--2----2------2----0--|----0----0--0----0----|-----------------------|
--3----3------3----2--|----2----2--2----2----|--3----3------3--3--3--|
--2----2------2----2--|----2----2--2----2----|--4----4------4--4--0--|
--0----0------0----2--|----2----2--2----2----|--4----4------4--4--0--|
-------------------0--|----0----0--0----0----|--2----2------2--2--2--|
----------------------|----------------------|--------------------3--|


                                                                      
-----------------------|--2----2------2----0--|----0----0--0----0----|
----3----3--3----3--3--|--3----3------3----2--|----2----2--2----2----|
----0----0--0----0--2--|--2----2------2----2--|----2----2--2----2----|
----0----0--0----0--0--|--0----0------0----2--|----2----2--2----2----|
----2----2--2----2-----|-------------------0--|----0----0--0----0----|
----3----3--3----3-----|----------------------|----------------------|


The world gets in my face         I say              Have a nice day     
--0------0------0----|----0------0----0----|--------------------|
--0------0------0----|----0------0----0----|--3----3------------|
--0------0------0----|----0------0----0----|--0----0------------|
--2------2------2----|----2------2----2----|--0----0------------|
--2------2------2----|----2------2----2----|--2----2------------|
---------------------|---------------------|--3----3------------|


-----------------------|---------------------|-----------------------|
--3----3--3----3--3----|----3------2----2----|--3----3--3----3--3----|
--4----4--2----2--0----|----2------2----2----|--4----4--2----2--0----|
--4----4--0----0--0----|----0------2----2----|--4----4--0----0--0----|
--2----2----------2----|-----------0----0----|--2----2----------2----|
------------------3----|---------------------|------------------3----|


                                                                          
---------------------|
----3------2----2----|
----2------2----2----|
----0------2----2----|
-----------0----0----|
---------------------|

verso

Chorus

SOLO

--------------------------|---------------------------------|
--12b(14)~---14-12r---12b-|----------14-12------------------|
--------------------13-----|---------------13-11-11b-11-9-11|
--------------------------|---------------------------------|
--------------------------|---------------------------------|
--------------------------|---------------------------------|


                                                
------------12--------------|------------------|
----------------12----------|------------------|
--11b---------------11b--11-|--9-11------------|
----------------------------|------------------|
----------------------------|------------------|
----------------------------|------------------|


                                                                                
---------------------------------------------|---------------------12b(14)-|
--------14-11b-14-------14-11b-14------14-11b|---14-------14-11b-14--------|
--11-13-----------11-13-----------11-13-------|------11-13-----------------|
----------------------------------------------|----------------------------
----------------------------------------------|----------------------------|
----------------------------------------------|----------------------------|


                                                    
----14--12--12--11--11--9--9--|--------------------|
------------------------------|--------------------|
------------------------------|--11----------------|
------------------------------|--------------------|
------------------------------|--------------------|
------------------------------|--------------------|


                                                              
-----------------------------|--------------------------|-3---3-|
--10--10--10--9--9--9--7--7--|--7--5--5--5--2--2--0--0--|-3---3-|
--9---9---9---8--8--8--6--6--|--6-----------------------|-0---0-|
-----------------------------|--------------------------|-0---0-|
-----------------------------|--------------------------|-2---2-|
-----------------------------|--------------------------|-3---3-
            
Hard to play? Try these video lessons and learn fast. | Correct




comments powered by Disqus
↑ Back to top | Tablatures and chords are parodies/interpretations of the original songs. You may use it for private study, scholarship, research or language learning purposes only