» » »

Bon Jovi, Every Day Tabs (ver.2)

Artists:  A B C D E F G H I J K L M N O P Q R S T U V W X Y Z # 

Every Day Tabs (ver.2)

Bon Jovi Tabs
 Rating:
4/5 (4 votes)
Every Day lessons Tabs too difficult? Try these video lessons and learn fast
1
                (Complete)
I saw Bon Jovi live and this was how Richie played it.

Intro and verse 1:
Play slightly muted with right hand.
E----------------------------------------------------
B----------------------------------------------------
G----------------------------------------------------
D----------------------------------------------------
A----------------------------------------------------
E-5-5-5-5-8-5--5--5-5-8-5--5-5-5-5-5-8-5--5--5-5-8-5-

E---------------------------------------------------------
B---------------------------------------------------------
G---------------------------------------------------------
D---------------------------------------------------------
A---------------------------------------------------------
E-5-5-5-5-5-8-5--5--5-5-8-5--5-5-5-5-5-8-5--5-8-5--5-8-5--

Bridge:
E------------------
B------------------
G------------------
D-3------7\3---5---
A-3------7\3---5---
E-1------5\1---3---

Chorus:
A5	C5	G5	F5 x2

Bridge:
E--------------
B--------------
G--------------
D-7----7-7-5-7-
A-7----7-7-5-7-
E-5----5-5-3-5-

Few bars silence then:

Verse 2:
E-------------------
B-----5-7-----------
G-5-----------------
D---7---------------
A-------------------
E-----------/5--/8--

E----------------------------------------------------
B----------------------------------------------------
G----------------------------------------------------
D----------------------------------------------------
A----------------------------------------------------
E-5-5-5-5-8-5--5--5-5-8-5--5-5-5-5-5-8-5--5--5-5-8-5-

E---------------------------------------------------------
B---------------------------------------------------------
G---------------------------------------------------------
D---------------------------------------------------------
A---------------------------------------------------------
E-5-5-5-5-5-8-5--5--5-5-8-5--5-5-5-5-5-8-5--5-8-5--5-8-5--

Bridge:
E------------------
B------------------
G------------------
D-3------7\3---5---
A-3------7\3---5---
E-1------5\1---3---

Chorus:
A5	C5	G5	F5 x2

Bridge:
E------------------
B------------------
G------------------
D-7---5---3-3------
A-7---5---3-3------
E-5---3---1-1------

Solo:
E----------------------------------------------------------
B-8b10r8—8b10r8p5-10b12r10-10b12r10p8----------------------
G--------------------------------------5h7-5h7-5h7-7p5-----
D------------------------------------------------------7---
A----------------------------------------------------------
E----------------------------------------------------------

E-------------------------------------------------------
B-------------5h8—8b10-8b10-8b10-8b10-8b10--10b12-10b12-
G-5h7-5h7-5h7-------------------------------------------
D-------------------------------------------------------
A-------------------------------------------------------
E-------------------------------------------------------

E--------------------------------------------------------
B-10b12-10b12-10b12--12b13-12b13-12b13-12b13-12b13—15b17-
G--------------------------------------------------------
D--------------------------------------------------------
A--------------------------------------------------------
E--------------------------------------------------------

E-------------------
B-17b18--20-20b22~~~
G-------------------
D-------------------
A-------------------
E-------------------

Chorus and Outro:
A5	C5	G5	F5  x4
            
Submit corrections

comments powered by Disqus
↑ Back to top | Bon Jovi Tabs for Every Day. Lyrics for acoustic guitar and electric guitar. 1 Tablatures and chords are parodies/interpretations of the original songs. You may use it for private study, scholarship, research or language learning purposes only