>
 >
Dry Country (Solo)

Dry Country (Solo) Guitar Tabs

Bon Jovi - Dry Country (Solo) chords, tabs, tablatures, lyrics

Guitar lessons | Add/correct | Request | Top 50 tabs Artists:  A B C D E F G H I J K L M N O P Q R S T U V W X Y Z 0-9

Dry Country (Solo) Guitar Tabs – Bon Jovi

CD, Sheet music, Poster

Do you like Dry Country (Solo)? Share with your friends now
Tabs
Bon Jovi.  "Dry county" guitar solo's.
 
Dry County- (Guitar solo’s)


1st Solo: -

E|-------------------------------------------------------------|
B|----------------------------13-------------13b15r10-------13-|
G|------10--------10—10h12b14----12b14r10h12----------12h14----|
D|-10h12--12P10h12—12------------------------------------------|
A|-------------------------------------------------------------|
E|-------------------------------------------------------------|

E|-------------------------------------------------------------|
B|-13b15r10-----13--------10-13-15b17-17p15p13-15-18/13-13p15--|
G|---------12h14--10-12-13-------------------------------------|
D|-------------------------------------------------------------|
A|-------------------------------------------------------------|
E|-------------------------------------------------------------|


E|------------13-15/17/15-13-13h15p13--------------------------|
B|-13h15-13-15-----------------------17-17-13-15-17b19r17-13-15|
G|-------------------------------------------------------------|
D|-------------------------------------------------------------|
A|-------------------------------------------------------------|
E|-------------------------------------------------------------|

E|-13-15/17-17-17-13h15-------|
B|---------------------13h15--|
G|----------------------------|
D|----------------------------|
A|----------------------------|
E|----------------------------|

I think it’s OK up to here. It’s close anyway!!!  Next comes the real challenge.
I’m skipping out the arpeggiated solo and moving on to the 3rd solo!!! 

3rd Solo

E|------------------------------------------------------------|
B|-13p12p10--13p12p10--13p12p10--13p12p10--13p12p10--13p12p10-|
G|------------------------------------------------------------|
D|------------------------------------------------------------|
A|------------------------------------------------------------|
E|------------------------------------------------------------|

E|-------------------------------------------------------------|
B|-13p12p10—13p12p10-13b15r13-10-------------------------------|
G|-------------------------------12b14r10-12-10----------------|
D|---------------------------------------------12—<<12-12-12-10>> x3
A|-------------------------------------------------------------|
E|-------------------------------------------------------------|

E|-----------------------------15-13-12--------------15-13-12p13|
B|--------------------------13---------15-15p12-15p12-----------|
G|---10-12b14r12p10—10-12b14—12---------------------------------|
D|-12--------------12-------------------------------------------|
A|--------------------------------------------------------------|
E|--------------------------------------------------------------|

E|h13p12---13b15-15-13p12-----12h13--} x3—17p15p13--------13--------|
B|------15---------------12-15-------}------------15-13h15—15p13h15-|
G|------------------------------------------------------------------|
D|------------------------------------------------------------------|
A|------------------------------------------------------------------|
E|------------------------------------------------------------------|

E|17-17-17-16-16-16-15vv-13h15p13-----------------------------------|
B|-------------------------------17-17b10r17-13-15h17---------------|
G|----------------------------------------------------14------------|
D|------------------------------------------------------------------|
A|-------------------------------------------------------12-12-12-12|
E|------------------------------------------------------------------|

E|---------------------------------------------------------15-13-12-|
B|------------------------------------------------------------------|
G|---------------------10--------------------------17/19/21---------|
D|-<<121212-10>> x3—12---12---12-10--12/14/15/17/19-----------------|
A|--------------------------12--------------------------------------|
E|------------------------------------------------------------------|

E|---------------------------------------------------------------------|
B|-15-13---------------------------------------------------------------|
G|------14-12-14h15p14h12-14h15p14p12h14vvp12-----------10-12b14r12p10-|
D|---------------------------------------------12-12-12----------------|
A|---------------------------------------------------------------------|
E|---------------------------------------------------------------------|
                                        Unsure******************************
E|----------------------17-15p13-15h17—18p17p15-18p17p15---------|
B|------------11-13b15/0\-------------------------------18p17p15-|
G|------10-12----------------------------------------------------|
D|-12p10---------------------------------------------------------|
A|---------------------------------------------------------------|
E|---------------------------------------------------------------|
        ***********************************************************
E|--------------------------------15-17-18-20vv-18p17p151818p1717-|
B|-18p17p15---16p15p13-16p15p13/18--------------------------------|
G|----------------------------------------------------------------|
D|----------------------------------------------------------------|
A|----------------------------------------------------------------|
E|----------------------------------------------------------------|
        **************************************************************
E|----------------------------------------------------------------------|
B|-18p17p15-18p17p15-15-15vv—10-12-13b15r13b15-13-10-----------------13-|
G|--------------------------------------------------12-10-12-10-12b14—12|
D|----------------------------------------------------------------------|
A|----------------------------------------------------------------------|
E|----------------------------------------------------------------------|

 





Comments


Popular Bon Jovi tabs & chords
Bed Of Roses 3 Chords
Its My Life 2 Chords
Its My Life 4 Chords
Welcome To Wherever You Are 3 Chords
All About Lovin' You 1 Tabs
Dry County 1 Tabs
Price Of Love Tabs
The Distance 1 Tabs
The Last Night Tabs
This Aint A Love Song Intro Tabs


Song lyrics



↑ Back to top | Tablatures and chords are parodies/interpretations of the original songs. You may use it for private study, scholarship, research or language learning purposes only
© 2014 AZChords.com Contact us | Privacy policy | DMCA | Add/correct tabs | Request tabs | Top 50 tabs