» » »

Bed Of Roses Bass tabs (ver.1)

Artists:  A B C D E F G H I J K L M N O P Q R S T U V W X Y Z # 

Bed Of Roses Bass tabs (ver.1)

Bon Jovi
Rating:
0/5 (0 votes)

Hard to play? Try these video lessons and learn fast.
                
BED OF ROSES (BON JOVI) BASS TAB

Verse 1 (Just Piano)
(………when I’m dead…)
G|----------------|
D|----------------|
A|----------------|
E|------------1---|

Verse 2      			 (…While some…)
G|--------------------|-------|------------|--------------|
D|--------------------|-------|---3--------|-------10-----|
A|---8\-----------1---|-------|--------1---|---3/8----8---|
E|-------------1------|---1---|-----1------|--------------|
 (…A bout all…)
G|------------|-------|------------|----------|-------|----------------|---|
D|------------|-------|------------|----------|-------|----------------|---|
A|--3---1-0---|--0-1--|------------|---3---1--|--1-1--|----0-1---3-----|---|
E|------------|-------|--1----1-1--|-----1----|-------|--1-----------1-|-0-|

Chorus
G|-----------------------------------|--------------------------------|
D|-----------------------------------|---------------------8------8---|
A|--3/5-----5-3-----1----------------|----1-3/5-----7------------8-8--|
E|------------------------1-----1-1--|--1-----------------------------|

G|-----------------|-------|-----------|-----------------|-------------|---|
D|--------3--------|-------|-----------|-----8--10-10----|-------------|---|
A|----0-3---3---1--|--1----|----3---1--|--8-----------8--|--8-5--7--8--|---|
E|--1---------1----|----1--|--1---3----|-----------------|-------------|-1-|

Verse 3  (…my way home…)
G|-3-3----|------|---------|---------|-----------|-------|---------|-------|
D|--------|------|----3----|--8------|-----------|-------|---------|-------|
A|--------|-3----|--3---1--|------8--|--3---1-0--|--0-1--|-0-------|-------|
E|-----1--|---1--|---------|----8----|-----------|-------|---3--1--|--1-1--|

G|-------------|-------|--------------------|-----|
D|-------------|-------|--------------------|-----|
A|---3-----1---|---1---|-----0-1----3-------|-----|
E|------1------|-------|---1-------------1--|--0--|

Chorus
Middle 8
G|-----|--------------------|----------------|-------------|--------------|
D|-----|--------------------|----------------|-------------|--------------|
A|-----|--1---3/5---1---3---|-------3-5-7-8--|--3/5-3------|------3---1---|
E|--0--|--------------------|---(5)----------|--------3-1--|--1-1---3-----|

G|-------|---------------------|-----|
D|-------|---------------------|-----|
A|----1--|----0-1-----3--------|-----|
E|--1----|--1---------------1--|--0--|

Guitar Solo
G|-----------------------------------|--------------------------------|
D|-----------------------------------|---------------------8------8---|
A|--3/5-----5-3-----1----------------|----1-3/5-----7------------8-8--|
E|------------------------1-----1-1--|--1-----------------------------|

G|-----------------|-----------------------------|-------------|
D|--------3--------|-----------------------------|-------------|
A|----0-3---3---0--|--3/5-----5-3-----1----------|---5--7--8---|
E|--1--------------|------------------------1-1--|-------------|

Verse 4 (Just piano)

(…I got nothing to prove for it’s you that I’d die to defend…)
G|----------------------------------------------|-----------------|
D|----------------------------------------------|-----------------|
A|------5-----------7--------------8------------|-----------------|
E|----------------------------------------------|-------1-----0---|

Chorus (then ‘E’)
Chorus
            
Hard to play? Try these video lessons and learn fast. | Correct




comments powered by Disqus
↑ Back to top | Tablatures and chords are parodies/interpretations of the original songs. You may use it for private study, scholarship, research or language learning purposes only