>
 >
What If 2

What If 2 Bass Tabs

Bombay Bicycle Club - What If 2 chords, tabs, tablatures, lyrics

Guitar lessons | Add/correct | Request | Top 50 tabs Artists:  A B C D E F G H I J K L M N O P Q R S T U V W X Y Z 0-9

What If 2 Bass Tabs – Bombay Bicycle Club

CD, Sheet music, Poster

Do you like What If 2? Share with your friends now
Bass TabsBass Tabs v2Tabs
---------------------------------------------------------------------
			What If  Bombay Bicycle Club
---------------------------------------------------------------------


Tuning: Standard

Verse/Intro
G|--------------------------------------------------|
D|--------------------------------------------------|
A|--------------------------------------------------|
E|77-7777-77-7777-1010-10101010-1515-15151515-------|
(10s and 15s)

Fill 1
G|------------9----------------------|
D|-----------------------------------|
A|7~---5~--6-7~---5~-----------------|
E|-----------------------------------|

Fill 2
G|---9--9----7-------------------------|
D|-------------------------------------|
A|777-77--555-555667-------------------|
E|-------------------------------------|

Pre Chorus
G|-----------------------------------------------------------|
D|-----------------------------------------------------------|
A|-----------------------------------------------------------|
E|3~-------5~-------7~10~--12-12-12-12-12-12-12-12----------|

Chorus
G|----------------------------------------|
D|----------------------------------------|
A|----------------------------------------|
E|3(x16)-5(x16)-7(x8)-10(x8)-12(x16)------|

Order

Intro (x6)
Fill 1
Fill 2 (x8)
Pre Chorus
Chorus
Verse (x6)
Fill 1
Fill 2 (x8)
Pre Chorus
Chorus (x4)
Verse (x4)

Finish on
G|---
D|---
A|---
E|-7-


| /  slide up
| \  slide down
| h  hammer-on
| p  pull-off
| ~  vibrato
| +  harmonic
| x  Mute note
===============================================================================





Comments


Popular Bombay Bicycle Club tabs & chords
Always Like This Bass Tabs
Evening Morning 3 Bass Tabs
How Are You 2 Bass Tabs
Your Eyes Bass Tabs
Cancel On Me Chords
Curl Up Like A Dead Leaf And Go Where The Wind Blows Intro Tabs
Emergency Contraception Blues 1 Tabs
How Are You Intro Tabs
Ivy And Gold Intro 1 Tabs
Open House Tabs


Song lyrics



↑ Back to top | Tablatures and chords are parodies/interpretations of the original songs. You may use it for private study, scholarship, research or language learning purposes only
© 2014 AZChords.com Contact us | Privacy policy | DMCA | Add/correct tabs | Request tabs | Top 50 tabs