» » »

Bombay Bicycle Club, What If Bass tabs (ver.1)

Artists:  A B C D E F G H I J K L M N O P Q R S T U V W X Y Z # 

What If Bass tabs (ver.1)

Bombay Bicycle Club Tabs
 Rating:
4/5 (4 votes)
What If lessons Tabs too difficult? Try these video lessons and learn fast
                			What If – Bombay Bicycle Club


Tuning: Standard

Verse/Intro
G|--------------------------------------------------|
D|--------------------------------------------------|
A|--------------------------------------------------|
E|77-7777-77-7777-1010-10101010-1515-15151515-------|
(10s and 15s)

Fill 1
G|------------9----------------------|
D|-----------------------------------|
A|7~---5~--6-7~---5~-----------------|
E|-----------------------------------|

Fill 2
G|---9--9----7-------------------------|
D|-------------------------------------|
A|777-77--555-555667-------------------|
E|-------------------------------------|

Pre Chorus
G|-----------------------------------------------------------|
D|-----------------------------------------------------------|
A|-----------------------------------------------------------|
E|3~-------5~-------7~—10~--12-12-12-12-12-12-12-12----------|

Chorus
G|----------------------------------------|
D|----------------------------------------|
A|----------------------------------------|
E|3(x16)-5(x16)-7(x8)-10(x8)-12(x16)------|

Order

Intro (x6)
Fill 1
Fill 2 (x8)
Pre Chorus
Chorus
Verse (x6)
Fill 1
Fill 2 (x8)
Pre Chorus
Chorus (x4)
Verse (x4)

Finish on
G|---
D|---
A|---
E|-7-


| /  slide up
| \  slide down
| h  hammer-on
| p  pull-off
| ~  vibrato
| +  harmonic
| x  Mute note
            
Submit corrections

comments powered by Disqus
↑ Back to top | Bombay Bicycle Club Bass for What If. Lyrics for acoustic guitar and electric guitar. Tablatures and chords are parodies/interpretations of the original songs. You may use it for private study, scholarship, research or language learning purposes only