» » »

Pimpers Paradise Tabs (ver.1)

Artists:  A B C D E F G H I J K L M N O P Q R S T U V W X Y Z # 

Pimpers Paradise Tabs (ver.1)

Bob Marley
Rating:
0/5 (0 votes)

Hard to play? Try these video lessons and learn fast.
                Bob Marley-Pimpers Paradise
Tuning: Standard

Intro: Lead
e-------12---------------12-----------------------------|
b----------13---10---13-------13---10---13--------------|
g-------9----------------9-------------------12--12--12-|
d----------10---7----10-------10---7----10--------------|
a--------------------------------------------10--10--10-|
E-------------------------------------------------------|

Intro: Bass [Played along with lead]
e--------------------------------|
b--------------------------------|
g--------------------------------|
d--------------------------------|
a-7-3---3—--7---3-----3----------|
E-----5------------5-----3--3--3-|

Chords
  F          G       C      Am
e-12---  ----10---  --8--  --7---|
b-13---  ----12---  --10-  --8---|
g-14---  ----12---  --10-  --9---|
d-14---  ----12---  --10-  --9---|
a-12---  ----10---  --8--  --7---|
E-12---  ----10---  --8-- `--7---|

Verses [F, G throughout than C, Am come in at the end as shown below]

F                   G
She left the party, have a good time

Bass: Played along with chords F and G
e--------------------------------------|
b--------------------------------------|
g--------------------------------------|
d--------------------------------------|
a—-3-2---3-3-2----------------5--------|
E-1---1--------1----3-3--5—-7----3-3-3-|

C                             Am
She be laughing when there ain’t no joke

Bass: Played along with chords C and Am
e-------------------------------------|
b-------------------------------------|
g-------------------------------------|
d-------------------------------------|
a—-3-2---3-3-2-----7-7--7----7-7-7----|
E-1---1--------1---------7—7----------|

Chorus
   F                               G
A pimpers paradise, that’s all she was now

Bass: Played along with chords F and G
e--------------------------------------|
b--------------------------------------|
g--------------------------------------|
d--------------------------------------|
a—-3-2---3-3-2----------------5--------|
E-1---1--------1----3-3--5—-7----3-3-3-|

   C                               Am
A pimpers paradise, that’s all she was

Bass: Played along with chords C and Am
e-------------------------------------|
b-------------------------------------|
g-------------------------------------|
d-------------------------------------|
a—-3-2---3-3-2-----7-7--7----7-7-7----|
E-1---1--------1---------7—7----------|

Bridge:
        F          G       Am   C
Every need got an ego to feed

Bass: Played along with the above progression [F G Am C]
e----------------------------------|
b----------------------------------|
g----------------------------------|
d----------------------------------|
a-3-3--3----------------3-7—8-8--8-|
E---------3-3--3--5-5--5-----------|

That’s basically how the whole song is played. Just get the lyrics, listen to the song
play the parts accordingly. Verses are played the same way. The bridge has a few keyboard
thrown in second time it’s played in the song. A really cool song by Bob and the Wailers 
one of the best reggae songs of all time in my opinion. Dedicated to the B.o.B: Fiji
            
Hard to play? Try these video lessons and learn fast. | Correct




comments powered by Disqus
↑ Back to top | Tablatures and chords are parodies/interpretations of the original songs. You may use it for private study, scholarship, research or language learning purposes only