>
 >
Redemption 2

Redemption 2 Guitar Tabs

Bob Marley - Redemption 2 chords, tabs, tablatures, lyrics

Guitar lessons | Add/correct | Request | Top 50 tabs Artists:  A B C D E F G H I J K L M N O P Q R S T U V W X Y Z 0-9

Redemption 2 Guitar Tabs – Bob Marley

CD, Sheet music, Poster

Do you like Redemption 2? Share with your friends now
TabsTabs v2Tabs v3
For some reason i cant put song on the end of redemption

Intro
 Gtr I
|-------------|---------------|----------------|---------------|
|-------------|---------------|----------------|---------------|
|-------------|---------------|----------------|---------------|
|-------------|-----0h2-0-----|-----------0----|---------------|
|-----0h2-----|-0h3--------2--|-----0-0h2----2-|-2h3-2-0-------|
|-3-------3---|---------------|-3--------------|----------3----|

|--------------|---------------|---------------|-------------||
|--------------|---------------|---------------|-------------||
|--------------|---------------|-----------0---|-------------||
|--------------|-----0h2-0-----|-----------0---|-------------||
|-----0-0h2----|-0h3--------2--|-----0-0h2-----|-3-2-0-------||
|-3---------3--|---------------|-3-------------|--------3----||

 Verse 1
|-----------------|-----------------|-------------|---------------|
|----3-3-(3)-3-3--|-0----0-(0)-0-0--|-1--1--1--1--|-1--1-1--1-1p0-|
|----0-0-(0)-0-0--|-0--x-0-(0)-0-0--|-0--0--0--0--|-2--2-2--2-2p0-|
|----0-0-(0)-0-0--|-2--x-2-(2)-2-2--|-2--2--0--0--|-2--2-2--2-2p0-|
|----2-2-(2)-2-2--|-2----2-(2)-2-2--|-3--3--2--2--|-0--0-0--0-0---|
|-3--3-3-(3)-3-3--|-0----0-(0)-0-0--|-------------|---------------|

|-----------------|-----------------|-------------|-----------------|
|----3-3-(3)-3-3--|-0----0-(0)-0-0--|-1--1--1--1--|-1--1-1-(1)-1-1--|
|----0-0-(0)-0-0--|-0--x-0-(0)-0-0--|-0--0--0--0--|-2--2-2-(2)-2-2--|
|----0-0-(0)-0-0--|-2--x-2-(2)-2-2--|-2--2--0--0--|-2--2-2-(2)-2-2--|
|----2-2-(2)-2-2--|-2----2-(2)-2-2--|-3--3--2--2--|-0--0-0-(0)-0-0--|
|-3--3-3-(3)-3-3--|-0----0-(0)-0-0--|-------------|-----------------|

|----------------|-------------------|-------------|-----------------|
|----3-3-3-3-3-3-|-0-0-0-0-(0)-0-0-0-|-1--1--1--1--|-1--1-1-(1)-1-1--|
|----0-0-0-0-0-0-|-0-0-0-0-(0)-0-0-0-|-0--0--0--0--|-2--2-2-(2)-2-2--|
|----0-0-0-0-0-0-|-2-2-2-2-(2)-2-2-2-|-2--2--0--0--|-2--2-2-(2)-2-2--|
|----2-2-2-2-2-2-|-2-2-2-2-(2)-2-2-2-|-3--3--2--2--|-0--0-0-(0)-0-0--|
|-3--3-3-3-3-3-3-|-0-0-0-0-(0)-0-0-0-|-------------|-----------------|

|---------------|-----------------|-------------------|-------------------||
|----3-3-3-3-3--|-0----0-(0)-0-0--|-1-1-1-1-(1)-1-1---|-3-3-3-3-(3)-3-3-3-||
|----0-0-0-0-0--|-0--0-0-(0)-0-0--|-0-0-0-0-(0)-0-0-x-|-2-2-2-2-(2)-2-2-2-||
|----0-0-0-0-0--|-2--2-2-(2)-2-2--|-2-2-2-2-(2)-2-2-x-|-0-0-0-0-(0)-0-0-0-||
|----2-2-2-2-2--|-2----2-(2)-2-2--|-3-3-3-3-(3)-3-3---|-0-0-0-0-(0)-0-0-0-||
|-3--3-3-3-3-3--|-0----0-(0)-0-0--|-------------------|-------------------||

 Chorus
|----------------|-------------------|-----------------|-------------------|
|-3-3-3-3-3-3----|-------0-(0)-0-----|-1-1-1---3-3-3---|-------0-(0)-0-----|
|-2-2-2-2-2-2----|-0-0---0-(0)-0---0-|-0-0-0-x-2-2-2-x-|---0---0-(0)-0---0-|
|-0-0-0-0-0-0-0--|-0-0---0-(0)-0---0-|-2-2-2-x-0-0-0-x-|---0---0-(0)-0---0-|
|-0-0-0-0-0-0-0--|-----x-------------|-3-3-3---0-0-0---|-----x-------------|
|----------------|-3-------------3---|-----------------|-3-------------3---|

|-----------------|-----------------|-----------------|-------------------|
|-1-1-1---3-3-3---|-0-0---0---0-0---|-1-1-1---3-3-3---|-------0-(0)-0-----|
|-0-0-0-x-2-2-2-x-|-0-0---0---0-0-0-|-0-0-0-x-2-2-2-x-|---0---0-(0)-0---0-|
|-2-2-2-x-0-0-0-x-|-2-2---2---2-2---|-2-2-2-x-0-0-0-x-|---0---0-(0)-0---0-|
|-3-3-3---0-0-0---|-2-2---2---2-2---|-3-3-3---0-0-0---|-----x-------------|
|-----------------|-0-0-0-0-0-0-0---|-----------------|-3-------------3---|

                                                          2nd & 3rd Verses
|-----------------|-------------------|-----------------||-----------------|
|-1-1-1---3-3-3---|-------0-(0)-0-----|-1-1-1---3-3-3---||----3-3-(3)-3-3--|
|-0-0-0-x-2-2-2-x-|---0---0-(0)-0---0-|-0-0-0-x-2-2-2-x-||----0-0-(0)-0-0--|
|-2-2-2-x-0-0-0-x-|---0---0-(0)-0---0-|-2-2-2-x-0-0-0-x-||----0-0-(0)-0-0--|
|-3-3-3---0-0-0---|-----x-------------|-3-3-3---0-0-0---||----2-2-(2)-2-2--|
|-----------------|-3-------------3---|-----------------||-3--3-3-(3)-3-3--|

|-----------------|-------------|---------------|-----------------|
|-0----0-(0)-0-0--|-1--1--1--1--|-1--1-1--1-1p0-|----3-3-(3)-3-3--|
|-0--x-0-(0)-0-0--|-0--0--0--0--|-2--2-2--2-2p0-|----0-0-(0)-0-0--|
|-2--x-2-(2)-2-2--|-2--2--0--0--|-2--2-2--2-2p0-|----0-0-(0)-0-0--|
|-2----2-(2)-2-2--|-3--3--2--2--|-0--0-0--0-0---|----2-2-(2)-2-2--|
|-0----0-(0)-0-0--|-------------|---------------|-3--3-3-(3)-3-3--|

|-----------------|-------------|-----------------|----------------|
|-0----0-(0)-0-0--|-1--1--1--1--|-3-3-3-3-3-3-3---|----3-3-3-3-3-3-|
|-0--x-0-(0)-0-0--|-0--0--0--0--|-2-2-2-2-2-2-2-0-|----0-0-0-0-0-0-|
|-2--x-2-(2)-2-2--|-2--2--0--0--|-0-0-0-0-0-0-0-0-|----0-0-0-0-0-0-|
|-2----2-(2)-2-2--|-3--3--2--2--|-0-0-0-0-0-0-0-0-|----2-2-2-2-2-2-|
|-0----0-(0)-0-0--|-------------|-----------------|-3--3-3-3-3-3-3-|

|-------------------|-------------|-----------------|---------------|
|-0-0-0-0-(0)-0-0-0-|-1--1--1--1--|-1--1-1-(1)-1-1--|----3-3-3-3-3--|
|-0-0-0-0-(0)-0-0-0-|-0--0--0--0--|-2--2-2-(2)-2-2--|----0-0-0-0-0--|
|-2-2-2-2-(2)-2-2-2-|-2--2--0--0--|-2--2-2-(2)-2-2--|----0-0-0-0-0--|
|-2-2-2-2-(2)-2-2-2-|-3--3--2--2--|-0--0-0-(0)-0-0--|----2-2-2-2-2--|
|-0-0-0-0-(0)-0-0-0-|-------------|-----------------|-3--3-3-3-3-3--|

                                                          Chorus
|-----------------|-----------------|-------------------||----------------|
|-0----0-(0)-0-0--|-1-1-1-1-3-3-3---|-3-3-3-3-(3)-3-3-3-||-3-3-3-3-3-3----|
|-0--0-0-(0)-0-0--|-0-0-0-0-0-0-0-x-|-2-2-2-2-(2)-2-2-2-||-2-2-2-2-2-2----|
|-2--2-2-(2)-2-2--|-2-2-2-2-0-0-0-x-|-0-0-0-0-(0)-0-0-0-||-0-0-0-0-0-0-0--|
|-2----2-(2)-2-2--|-3-3-3-3-2-2-2---|-0-0-0-0-(0)-0-0-0-||-0-0-0-0-0-0-0--|
|-0----0-(0)-0-0--|-----------------|-------------------||----------------|

|-------------------|-----------------|-------------------|-----------------|
|-------0-(0)-0-----|-1-1-1---3-3-3---|-------0-(0)-0-----|-1-1-1---3-3-3---|
|-0-0---0-(0)-0---0-|-0-0-0-x-2-2-2-x-|---0---0-(0)-0---0-|-0-0-0-x-2-2-2-x-|
|-0-0---0-(0)-0---0-|-2-2-2-x-0-0-0-x-|---0---0-(0)-0---0-|-2-2-2-x-0-0-0-x-|
|-----x-------------|-3-3-3---0-0-0---|-----x-------------|-3-3-3---0-0-0---|
|-3-------------3---|-----------------|-3-------------3---|-----------------|

|-----------------|-----------------|-------------------|-----------------|
|-0-0---0---0-0---|-1-1-1---3-3-3---|-------0-(0)-0-----|-1-1-1---3-3-3---|
|-0-0---0---0-0-0-|-0-0-0-x-2-2-2-x-|---0---0-(0)-0---0-|-0-0-0-x-2-2-2-x-|
|-2-2---2---2-2---|-2-2-2-x-0-0-0-x-|---0---0-(0)-0---0-|-2-2-2-x-0-0-0-x-|
|-2-2---2---2-2---|-3-3-3---0-0-0---|-----x-------------|-3-3-3---0-0-0---|
|-0-0-0-0-0-0-0---|-----------------|-3-------------3---|-----------------|

|-------------------|-----------------|-------------------|-----------------||
|-0-----0-(0)-0-----|-1-1-1---3-3-3---|-------0-(0)-0-----|-1-1-0---3-3-3---||
|-0-0---0-(0)-0---0-|-0-0-0-x-2-2-2-x-|-0-0---0-(0)-0---0-|-0-0-0-x-2-2-2-x-||
|-0-0---0-(0)-0---0-|-2-2-2-x-0-0-0-x-|-0-0---0-(0)-0---0-|-2-2-0-x-0-0-0-x-||
|-----x-------------|-3-3-3---0-0-0---|-----x-------------|-3-3-0---0-0-0---||
|-3-------------3---|-----------------|-3-------------3---|-----------------||

 Interlude
|-----------------|-----------------|-----------------|-----------------|
|-0---------------|---1-1---3-3-3-0-|-0---------------|---1-1---3-3-3-0-|
|-0---------------|---0-0---2-2-2-0-|-0---------------|---0-0---2-2-2-0-|
|-2-2---2---2-2-2-|-x-2-2-x-0-0-0---|-2-2---2---2-2-2-|-x-2-2-x-0-0-0---|
|-2-2---2---2-2-2-|-x-3-3-x---------|-2-2---2---2-2-2-|-x-3-3-x---------|
|-0---0---0---0---|-----------------|-0---0---0---0---|-----------------|

                    Out-Chorus
|-----------------||----------------|-------------------|-----------------|
|---1-1---3-3-3-0-||-3-3-3-3-3-3----|-------0-(0)-0-----|-1-1-1---3-3-3---|
|---0-0---2-2-2-0-||-2-2-2-2-2-2----|-0-0---0-(0)-0---0-|-0-0-0-x-2-2-2-x-|
|-x-2-2-x-0-0-0---||-0-0-0-0-0-0-0--|-0-0---0-(0)-0---0-|-2-2-2-x-0-0-0-x-|
|-x-3-3-x-0-0-0---||-0-0-0-0-0-0-0--|-----x-------------|-3-3-3---0-0-0---|
|-----------------||----------------|-3-------------3---|-----------------|

|-----------------|-------------|---------------|-----------------|
|-0----0-(0)-0-0--|-1--1--1--1--|-1--1-1--1-1p0-|----3-3-(3)-3-3--|
|-0--x-0-(0)-0-0--|-0--0--0--0--|-2--2-2--2-2p0-|----0-0-(0)-0-0--|
|-2--x-2-(2)-2-2--|-2--2--0--0--|-2--2-2--2-2p0-|----0-0-(0)-0-0--|
|-2----2-(2)-2-2--|-3--3--2--2--|-0--0-0--0-0---|----2-2-(2)-2-2--|
|-0----0-(0)-0-0--|-------------|---------------|-3--3-3-(3)-3-3--|

|-----------------|-------------|-----------------|----------------|
|-0----0-(0)-0-0--|-1--1--1--1--|-3-3-3-3-3-3-3---|----3-3-3-3-3-3-|
|-0--x-0-(0)-0-0--|-0--0--0--0--|-2-2-2-2-2-2-2-0-|----0-0-0-0-0-0-|
|-2--x-2-(2)-2-2--|-2--2--0--0--|-0-0-0-0-0-0-0-0-|----0-0-0-0-0-0-|
|-2----2-(2)-2-2--|-3--3--2--2--|-0-0-0-0-0-0-0-0-|----2-2-2-2-2-2-|
|-0----0-(0)-0-0--|-------------|-----------------|-3--3-3-3-3-3-3-|

|-------------------|-------------|-----------------|---------------|
|-0-0-0-0-(0)-0-0-0-|-1--1--1--1--|-1--1-1-(1)-1-1--|----3-3-3-3-3--|
|-0-0-0-0-(0)-0-0-0-|-0--0--0--0--|-2--2-2-(2)-2-2--|----0-0-0-0-0--|
|-2-2-2-2-(2)-2-2-2-|-2--2--0--0--|-2--2-2-(2)-2-2--|----0-0-0-0-0--|
|-2-2-2-2-(2)-2-2-2-|-3--3--2--2--|-0--0-0-(0)-0-0--|----2-2-2-2-2--|
|-0-0-0-0-(0)-0-0-0-|-------------|-----------------|-3--3-3-3-3-3--|

                                                          Chorus
|-----------------|-----------------|-------------------||----------------|
|-0----0-(0)-0-0--|-1-1-1-1-3-3-3---|-3-3-3-3-(3)-3-3-3-||-3-3-3-3-3-3----|
|-0--0-0-(0)-0-0--|-0-0-0-0-0-0-0-x-|-2-2-2-2-(2)-2-2-2-||-2-2-2-2-2-2----|
|-2--2-2-(2)-2-2--|-2-2-2-2-0-0-0-x-|-0-0-0-0-(0)-0-0-0-||-0-0-0-0-0-0-0--|
|-2----2-(2)-2-2--|-3-3-3-3-2-2-2---|-0-0-0-0-(0)-0-0-0-||-0-0-0-0-0-0-0--|
|-0----0-(0)-0-0--|-----------------|-------------------||----------------|

|-------------------|-----------------|-------------------|-----------------|
|-------0-(0)-0-----|-1-1-1---3-3-3---|-------0-(0)-0-----|-1-1-1---3-3-3---|
|-0-0---0-(0)-0---0-|-0-0-0-x-2-2-2-x-|---0---0-(0)-0---0-|-0-0-0-x-2-2-2-x-|
|-0-0---0-(0)-0---0-|-2-2-2-x-0-0-0-x-|---0---0-(0)-0---0-|-2-2-2-x-0-0-0-x-|
|-----x-------------|-3-3-3---0-0-0---|-----x-------------|-3-3-3---0-0-0---|
|-3-------------3---|-----------------|-3-------------3---|-----------------|

|-----------------|-----------------|-------------------|-----------------|
|-0-0---0---0-0---|-1-1-1---3-3-3---|-------0-(0)-0-----|-1-1-1---3-3-3---|
|-0-0---0---0-0-0-|-0-0-0-x-2-2-2-x-|---0---0-(0)-0---0-|-0-0-0-x-2-2-2-x-|
|-2-2---2---2-2---|-2-2-2-x-0-0-0-x-|---0---0-(0)-0---0-|-2-2-2-x-0-0-0-x-|
|-2-2---2---2-2---|-3-3-3---0-0-0---|-----x-------------|-3-3-3---0-0-0---|
|-0-0-0-0-0-0-0---|-----------------|-3-------------3---|-----------------|

|-------------------|-----------------|-------------------|-----------------||
|-0-----0-(0)-0-----|-1-1-1---3-3-3---|-------0-(0)-0-----|-1-1-0---3-3-3---||
|-0-0---0-(0)-0---0-|-0-0-0-x-2-2-2-x-|-0-0---0-(0)-0---0-|-0-0-0-x-2-2-2-x-||
|-0-0---0-(0)-0---0-|-2-2-2-x-0-0-0-x-|-0-0---0-(0)-0---0-|-2-2-0-x-0-0-0-x-||
|-----x-------------|-3-3-3---0-0-0---|-----x-------------|-3-3-0---0-0-0---||
|-3-------------3---|-----------------|-3-------------3---|-----------------||

 Interlude
|-----------------|-----------------|-----------------|-----------------|
|-0---------------|---1-1---3-3-3-0-|-0---------------|---1-1---3-3-3-0-|
|-0---------------|---0-0---2-2-2-0-|-0---------------|---0-0---2-2-2-0-|
|-2-2---2---2-2-2-|-x-2-2-x-0-0-0---|-2-2---2---2-2-2-|-x-2-2-x-0-0-0---|
|-2-2---2---2-2-2-|-x-3-3-x---------|-2-2---2---2-2-2-|-x-3-3-x---------|
|-0---0---0---0---|-----------------|-0---0---0---0---|-----------------|

                    Out-Chorus
|-----------------||----------------|-------------------|-----------------|
|---1-1---3-3-3-0-||-3-3-3-3-3-3----|-------0-(0)-0-----|-1-1-1---3-3-3---|
|---0-0---2-2-2-0-||-2-2-2-2-2-2----|-0-0---0-(0)-0---0-|-0-0-0-x-2-2-2-x-|
|-x-2-2-x-0-0-0---||-0-0-0-0-0-0-0--|-0-0---0-(0)-0---0-|-2-2-2-x-0-0-0-x-|
|-x-3-3-x-0-0-0---||-0-0-0-0-0-0-0--|-----x-------------|-3-3-3---0-0-0---|
|-----------------||----------------|-3-------------3---|-----------------|





Comments


Popular Bob Marley tabs & chords
Is This Love Bass Tabs
Night Shift Bass Tabs
Roots Rock Reggae 2 Bass Tabs
We And Them Bass Tabs
High Tide Or Low Tide Chords
No Woman No Cry 4 Chords
34 Bob Marley Tabs Tabs
Is This Love Intro Tabs
Redemption 1 Tabs
Coming In From The Cold Ukulele


Song lyrics



↑ Back to top | Tablatures and chords are parodies/interpretations of the original songs. You may use it for private study, scholarship, research or language learning purposes only
© 2014 AZChords.com Contact us | Privacy policy | DMCA | Add/correct tabs | Request tabs | Top 50 tabs