» » »

Real Situation Bass tabs (ver.1)

Artists:  A B C D E F G H I J K L M N O P Q R S T U V W X Y Z # 

Real Situation Bass tabs (ver.1)

Bob Marley
Rating:
0/5 (0 votes)

Hard to play? Try these video lessons and learn fast.
                    Title - Real Situation
    Artist - Bob Marley & the Wailers
    Album - Uprising
    riff 1
  G|----------------------------------------|
  D|---------------0-2-----------------0-2--|
  A|---------3-3-3---------------3-3-3------|
  E|--33-3-3--------------33-3-3------------|

  G|----------------------------------------|
  D|---------------0-2-----------------0-2--|
  A|---------3-3-3---------------3-3-3------|
  E|--33-3-3--------------33-3-3------------|

     riff 2
  G|-----------------------------|
  D|-------00-0-1-22-2-----------|
  A|-------------------3-33-3-0--|
  E|--33-3-----------------------|

  G|--------------------------------|
  D|---------------------------0-2--|
  A|---------55-5--------3-3-3------|
  E|--33-3-3------33-3-3------------|
    repeat riff 1 to fade...

       
            
Hard to play? Try these video lessons and learn fast. | Correct




comments powered by Disqus
↑ Back to top | Tablatures and chords are parodies/interpretations of the original songs. You may use it for private study, scholarship, research or language learning purposes only