» » »

One Love Bass tabs (ver.2)

Artists:  A B C D E F G H I J K L M N O P Q R S T U V W X Y Z # 

One Love Bass tabs (ver.2)

Bob Marley
Rating:
0/5 (0 votes)

Hard to play? Try these video lessons and learn fast.
                -----------------------------------------------------------------------------
			     One Love  Bob Marley
-----------------------------------------------------------------------------


Chorus:    One Love, One Heart
G|------------------------11-11---11---11-11---11----|
D|---9-9---9---9-9---9-------------------------------|
A|----------------------9------9-----9-------9-------|
E|-7----7---7-----7----------------------------------|

G|---9-9---9---------------11--9------------------------|
D|--------------9-9---9---------------------------------|
A|-7-----7---------------9---7--------------------------|
E|------------7-----7-----------------------------------|

And Repeat x2


Verse: Let them all pass all their dirty remarks
G|----------------------------9-9--9------------------|
D|---9-9----9-----6-6---6--------------99----9--------|
A|--------------------------7----7--------------------|
E|-7-----7------4-----4--------------7----7-----------|

And Repeat x 4


One Love, One Heart
Let's get together and feel all right
Hear the children crying (One Love)
Hear the children crying (One Heart)
Sayin' give thanks and praise to the Lord and I will feel all right
Sayin' let's get together and feel all right

Let them all pass all their dirty remarks (One Love)
There is one question I'd really like to ask (One Heart)
Is there a place for the hopeless sinner
Who has hurt all mankind just to save his own?
Believe me

One Love, One Heart
Let's get together and feel all right
As it was in the beginning (One Love)
So shall it be in the end (One Heart)
Give thanks and praise to the Lord and I will feel all right
One more thing

Let's get together to fight this Holy Armageddon (One Love)
So when the Man comes there will be no no doom (One Song)
Have pity on those whose chances grove thinner
There ain't no hiding place from the Father of Creation

Sayin' One Love, One Heart
Let's get together and feel all right
I'm pleading to mankind (One Love)
Oh Lord (One Heart)

Give thanks and praise to the Lord and I will feel all right
Let's get together and feel all right


| /  slide up
| \  slide down
| h  hammer-on
| p  pull-off
| ~  vibrato
| +  harmonic
| x  Mute note
=============================================================
            
Hard to play? Try these video lessons and learn fast. | Correct




comments powered by Disqus
↑ Back to top | Tablatures and chords are parodies/interpretations of the original songs. You may use it for private study, scholarship, research or language learning purposes only