» » »

Bob Marley, Could You Be Loved Bass tabs (ver.3)

Artists:  A B C D E F G H I J K L M N O P Q R S T U V W X Y Z # 

Could You Be Loved Bass tabs (ver.3)

Bob Marley Tabs
Rating:
0/5 (0 votes)
Could You Be Loved lessons Tabs too difficult? Try these video lessons and learn fast
                Bob Marley - Could you be loved
Standard Tuning: EADG
Tabbey By: RTBM

Intro
G|----------------------|
D|-----4----------4-----|
A|--4-5-5-4----4-5--5---|
E|-7--------5-7---------|

Chorus 2x
G|----------------------------------------|
D|----------------------------------------|
A|-55-3-55-5--------5-------2/55-----5----|
E|----------77-5-77--33-2-33----7-5-7-7---|

Verse
G|-----------------------------------------------------------------|
D|---4------4-------------------------4------4---------------------|
A|--5------5---5-77--77-5-77--77----5-------5---5-77--77-5-77--77--|
E|-7--7-5-7--7------5--------5---5-7---7-5-7--7------5--------5----|


G|-----------------------------------------------|
D|-----4------4---------11-12------12-11---------|
A|----5------5---9-10-10-----10-9-9------7---77--|
E|-5-7--7-5-7--7--------------------------5-7----|

G|------4-------------------------------------------------|
D|-----4------4---------12-12------11-11--7-7------4-7-7--|
A|----5------5---9-10-10------7-9-9------9----5-7-7-------|
E|-5-7----5-7--7------------------------------------------|


Chorus 2x
G|-----------------------------------------|
D|-----------------------------------------|
A|-55-3-55-5--------5-------2/55-----55----|
E|----------77-5-77--33-2-33----7-5-7--7---|


Instrumental part 6x
G|----------------------------|
D|--4-------------------------|
A|-7---------79-9-----5-7/9---|
E|---7-7-577-----5-7-7--------|


Verse
G|-----------------------------------------------------------------------|
D|-------4---------4------------------------4---------4------------------|
A|----4-5-5-4---4-5-5-4-577-77-577-77----4-5-5-4---4-5-5-4-577-77-577-77-|
E|-5-7-------5-7-----------5------5---5-7-------5-7-----------5------5---|

G|------------------------------------------666-----------|
D|-------4---------4-----------12,12,12-------------------|
A|----4-5-5-4---4-5-5-4-9-10,10---------7-99---577---577--|
E|-5-7-------5-7----------------------------------577-----|
                                           
                                               2x
G|--------------------------------------------|------99--------|
D|-------4---------4-----------12,12----11,11-|--77-7--5-77----|
A|----4-5-5-4---4-5-5-4-9-10,10-----7-99------|-9----------5-7-|
E|-5-7-------5-7------------------------------|----------------|



Chorus 2x
G|-----------------------------------------|
D|-----------------------------------------|
A|-55-3-55-5--------5-------2/55-----55----|
E|----------77-5-77--33-2-33----7-5-7--7---|


Background singers part: Till end
G|----------------------------|
D|--4-------------------------|
A|-7---------79-9-----5-7/9---|
E|---7-7-577-----5-7-7--------|









    
            

comments powered by Disqus
↑ Back to top | Bob Marley Bass for Could You Be Loved. Lyrics for acoustic guitar and electric guitar. Tablatures and chords are parodies/interpretations of the original songs. You may use it for private study, scholarship, research or language learning purposes only