» » »

Bob Marley, Caution Bass tabs (ver.2)

Artists:  A B C D E F G H I J K L M N O P Q R S T U V W X Y Z # 

Caution Bass tabs (ver.2)

Bob Marley Tabs
 Rating:
4/5 (4 votes)
Caution lessons Tabs too difficult? Try these video lessons and learn fast
                Standard tuning EADG


Intro:

  1 & 2 & 3 & 4 & 1 & 2 & 3 & 4 &
G--------------------------------|
D-------------7------------------|
A---------7-7-----7-7-7---5-5-5--|
E-5-5-8-8------------------------| x4

Verse

  1 & 2 & 3 & 4 & 1 & 2 & 3 & 4 &
G--------------------------------|
D-------------7------------------|
A---------7-7-----7-7-7---5-5-5--|
E-5-5-8-8------------------------| x8

Pre-chorus

  1 & 2 & 3 & 4 & 1 & 2 & 3 & 4 & 1 & 2 & 3 & 4 & 1 & 2 & 3 & 4 &
G----------------------------------------------------------------|
D-------------5-------------------------------3------------------|
A-----2-2-5-5-----0-0-0---0-0-0-------0-0-3-3-----3-3-3---3-3-3--|
E-3-3-----------------------------1-1----------------------------| x2

Chorus

  1 & 2  &  3 & 4 & 1 & 2 & 3 & 4 &
G---------------9------------------|
D-----------9-9--------------------|
A-7-7-10-10------------------------|
E-------------------5-5-5---5-5-5--| x4

Pre-chorus

  1 & 2 & 3 & 4 & 1 & 2 & 3 & 4 & 1 & 2 & 3 & 4 & 1 & 2 & 3 & 4 &
G----------------------------------------------------------------|
D-------------5-------------------------------3------------------|
A-----2-2-5-5-----0-0-0---0-0-0-------0-0-3-3-----3-3-3---3-3-3--|
E-3-3-----------------------------1-1----------------------------| x2

Bridge


  1 & 2 & 3 & 4 & 1 & 2 & 3 & 4 &
G--------------------------------|
D-------------7------------------|
A---------7-7-----7-7-7---5-5-5--|
E-5-5-8-8------------------------| x6


Pre-chorus

  1 & 2 & 3 & 4 & 1 & 2 & 3 & 4 & 1 & 2 & 3 & 4 & 1 & 2 & 3 & 4 &
G----------------------------------------------------------------|
D-------------5-------------------------------3------------------|
A-----2-2-5-5-----0-0-0---0-0-0-------0-0-3-3-----3-3-3---3-3-3--|
E-3-3-----------------------------1-1----------------------------| x2

Chorus

  1 & 2  &  3 & 4 & 1 & 2 & 3 & 4 &
G---------------9------------------|
D-----------9-9--------------------|
A-7-7-10-10------------------------|
E-------------------5-5-5---5-5-5--| x4

Fade out
            
Submit corrections

comments powered by Disqus
↑ Back to top | Bob Marley Bass for Caution. Lyrics for acoustic guitar and electric guitar. Tablatures and chords are parodies/interpretations of the original songs. You may use it for private study, scholarship, research or language learning purposes only