» » »

Buffalo Soldier Bass tabs (ver.2)

Artists:  A B C D E F G H I J K L M N O P Q R S T U V W X Y Z # 

Buffalo Soldier Bass tabs (ver.2)

Bob Marley
Rating:
0/5 (0 votes)

Hard to play? Try these video lessons and learn fast.
                Intro

G| -------------------------------
D| ----------------4-2-0------2---                   
A| 000-000-000-000-------0--4---00
E| -------------------------------

Bridge

G| ----------------------------------
D| ----------------------------------
A| 555-0--44--555-0--44--444--222/---
E| ---------4----------4----4-----222

Interlude

G| -----------------------------
D| ------------------------2---2
A| ----------------555-0-5---4--
E| 222-222-222-222--------------
            
Hard to play? Try these video lessons and learn fast. | Correct




comments powered by Disqus
↑ Back to top | Tablatures and chords are parodies/interpretations of the original songs. You may use it for private study, scholarship, research or language learning purposes only